  0
SECTION
  2
HEADER
  9
$ACADVER
  1
AC1018
  9
$ACADMAINTVER
 70
     0
  9
$DWGCODEPAGE
  3
ANSI_1252
  9
$INSBASE
 10
0.0
 20
0.0
 30
0.0
  9
$EXTMIN
 10
-931.8402
 20
-211.2605
 30
0.0
  9
$EXTMAX
 10
-580.736
 20
316.8157
 30
0.0
  9
$LIMMIN
 10
0.0
 20
0.0
  9
$LIMMAX
 10
12.0
 20
9.0
  9
$ORTHOMODE
 70
     0
  9
$REGENMODE
 70
     1
  9
$FILLMODE
 70
     1
  9
$QTEXTMODE
 70
     0
  9
$MIRRTEXT
 70
     1
  9
$LTSCALE
 40
1.0
  9
$ATTMODE
 70
     1
  9
$TEXTSIZE
 40
0.2
  9
$TRACEWID
 40
0.05
  9
$TEXTSTYLE
  7
Standard
  9
$CLAYER
  8
0
  9
$CELTYPE
  6
ByLayer
  9
$CECOLOR
 62
   256
  9
$CELTSCALE
 40
1.0
  9
$DISPSILH
 70
     0
  9
$DIMSCALE
 40
1.0
  9
$DIMASZ
 40
0.18
  9
$DIMEXO
 40
0.0625
  9
$DIMDLI
 40
0.38
  9
$DIMRND
 40
0.0
  9
$DIMDLE
 40
0.0
  9
$DIMEXE
 40
0.18
  9
$DIMTP
 40
0.0
  9
$DIMTM
 40
0.0
  9
$DIMTXT
 40
0.18
  9
$DIMCEN
 40
0.09
  9
$DIMTSZ
 40
0.0
  9
$DIMTOL
 70
     0
  9
$DIMLIM
 70
     0
  9
$DIMTIH
 70
     1
  9
$DIMTOH
 70
     1
  9
$DIMSE1
 70
     0
  9
$DIMSE2
 70
     0
  9
$DIMTAD
 70
     0
  9
$DIMZIN
 70
     0
  9
$DIMBLK
  1

  9
$DIMASO
 70
     1
  9
$DIMSHO
 70
     1
  9
$DIMPOST
  1

  9
$DIMAPOST
  1

  9
$DIMALT
 70
     0
  9
$DIMALTD
 70
     2
  9
$DIMALTF
 40
25.4
  9
$DIMLFAC
 40
1.0
  9
$DIMTOFL
 70
     0
  9
$DIMTVP
 40
0.0
  9
$DIMTIX
 70
     0
  9
$DIMSOXD
 70
     0
  9
$DIMSAH
 70
     0
  9
$DIMBLK1
  1

  9
$DIMBLK2
  1

  9
$DIMSTYLE
  2
Standard
  9
$DIMCLRD
 70
     0
  9
$DIMCLRE
 70
     0
  9
$DIMCLRT
 70
     0
  9
$DIMTFAC
 40
1.0
  9
$DIMGAP
 40
0.09
  9
$DIMJUST
 70
     0
  9
$DIMSD1
 70
     0
  9
$DIMSD2
 70
     0
  9
$DIMTOLJ
 70
     1
  9
$DIMTZIN
 70
     0
  9
$DIMALTZ
 70
     0
  9
$DIMALTTZ
 70
     0
  9
$DIMUPT
 70
     0
  9
$DIMDEC
 70
     4
  9
$DIMTDEC
 70
     4
  9
$DIMALTU
 70
     2
  9
$DIMALTTD
 70
     2
  9
$DIMTXSTY
  7
Standard
  9
$DIMAUNIT
 70
     0
  9
$DIMADEC
 70
     0
  9
$DIMALTRND
 40
0.0
  9
$DIMAZIN
 70
     0
  9
$DIMDSEP
 70
    46
  9
$DIMATFIT
 70
     3
  9
$DIMFRAC
 70
     0
  9
$DIMLDRBLK
  1

  9
$DIMLUNIT
 70
     2
  9
$DIMLWD
 70
    -2
  9
$DIMLWE
 70
    -2
  9
$DIMTMOVE
 70
     0
  9
$LUNITS
 70
     2
  9
$LUPREC
 70
     4
  9
$SKETCHINC
 40
0.1
  9
$FILLETRAD
 40
0.5
  9
$AUNITS
 70
     0
  9
$AUPREC
 70
     0
  9
$MENU
  1
.
  9
$ELEVATION
 40
0.0
  9
$PELEVATION
 40
0.0
  9
$THICKNESS
 40
0.0
  9
$LIMCHECK
 70
     0
  9
$CHAMFERA
 40
0.5
  9
$CHAMFERB
 40
0.5
  9
$CHAMFERC
 40
1.0
  9
$CHAMFERD
 40
0.0
  9
$SKPOLY
 70
     0
  9
$TDCREATE
 40
2458774.411312708
  9
$TDUCREATE
 40
2458773.994646042
  9
$TDUPDATE
 40
2458774.41131272
  9
$TDUUPDATE
 40
2458773.994646053
  9
$TDINDWG
 40
0.0000000116
  9
$TDUSRTIMER
 40
0.0000000116
  9
$USRTIMER
 70
     1
  9
$ANGBASE
 50
0.0
  9
$ANGDIR
 70
     0
  9
$PDMODE
 70
     0
  9
$PDSIZE
 40
0.0
  9
$PLINEWID
 40
0.0
  9
$SPLFRAME
 70
     0
  9
$SPLINETYPE
 70
     6
  9
$SPLINESEGS
 70
     8
  9
$HANDSEED
  5
59
  9
$SURFTAB1
 70
     6
  9
$SURFTAB2
 70
     6
  9
$SURFTYPE
 70
     6
  9
$SURFU
 70
     6
  9
$SURFV
 70
     6
  9
$UCSBASE
  2

  9
$UCSNAME
  2

  9
$UCSORG
 10
0.0
 20
0.0
 30
0.0
  9
$UCSXDIR
 10
1.0
 20
0.0
 30
0.0
  9
$UCSYDIR
 10
0.0
 20
1.0
 30
0.0
  9
$UCSORTHOREF
  2

  9
$UCSORTHOVIEW
 70
     0
  9
$UCSORGTOP
 10
0.0
 20
0.0
 30
0.0
  9
$UCSORGBOTTOM
 10
0.0
 20
0.0
 30
0.0
  9
$UCSORGLEFT
 10
0.0
 20
0.0
 30
0.0
  9
$UCSORGRIGHT
 10
0.0
 20
0.0
 30
0.0
  9
$UCSORGFRONT
 10
0.0
 20
0.0
 30
0.0
  9
$UCSORGBACK
 10
0.0
 20
0.0
 30
0.0
  9
$PUCSBASE
  2

  9
$PUCSNAME
  2

  9
$PUCSORG
 10
0.0
 20
0.0
 30
0.0
  9
$PUCSXDIR
 10
1.0
 20
0.0
 30
0.0
  9
$PUCSYDIR
 10
0.0
 20
1.0
 30
0.0
  9
$PUCSORTHOREF
  2

  9
$PUCSORTHOVIEW
 70
     0
  9
$PUCSORGTOP
 10
0.0
 20
0.0
 30
0.0
  9
$PUCSORGBOTTOM
 10
0.0
 20
0.0
 30
0.0
  9
$PUCSORGLEFT
 10
0.0
 20
0.0
 30
0.0
  9
$PUCSORGRIGHT
 10
0.0
 20
0.0
 30
0.0
  9
$PUCSORGFRONT
 10
0.0
 20
0.0
 30
0.0
  9
$PUCSORGBACK
 10
0.0
 20
0.0
 30
0.0
  9
$USERI1
 70
     0
  9
$USERI2
 70
     0
  9
$USERI3
 70
     0
  9
$USERI4
 70
     0
  9
$USERI5
 70
     0
  9
$USERR1
 40
0.0
  9
$USERR2
 40
0.0
  9
$USERR3
 40
0.0
  9
$USERR4
 40
0.0
  9
$USERR5
 40
0.0
  9
$WORLDVIEW
 70
     1
  9
$SHADEDGE
 70
     3
  9
$SHADEDIF
 70
    70
  9
$TILEMODE
 70
     1
  9
$MAXACTVP
 70
    64
  9
$PINSBASE
 10
0.0
 20
0.0
 30
0.0
  9
$PLIMCHECK
 70
     0
  9
$PEXTMIN
 10
1.000000000000000E+20
 20
1.000000000000000E+20
 30
1.000000000000000E+20
  9
$PEXTMAX
 10
-1.000000000000000E+20
 20
-1.000000000000000E+20
 30
-1.000000000000000E+20
  9
$PLIMMIN
 10
0.0
 20
0.0
  9
$PLIMMAX
 10
12.0
 20
9.0
  9
$UNITMODE
 70
     0
  9
$VISRETAIN
 70
     1
  9
$PLINEGEN
 70
     0
  9
$PSLTSCALE
 70
     1
  9
$TREEDEPTH
 70
  3020
  9
$CMLSTYLE
  2
Standard
  9
$CMLJUST
 70
     0
  9
$CMLSCALE
 40
1.0
  9
$PROXYGRAPHICS
 70
     1
  9
$MEASUREMENT
 70
     0
  9
$CELWEIGHT
370
    -1
  9
$ENDCAPS
280
     0
  9
$JOINSTYLE
280
     0
  9
$LWDISPLAY
290
     0
  9
$INSUNITS
 70
     4
  9
$HYPERLINKBASE
  1

  9
$STYLESHEET
  1

  9
$XEDIT
290
     1
  9
$CEPSNTYPE
380
     0
  9
$PSTYLEMODE
290
     0
  9
$FINGERPRINTGUID
  2
{FAEB1C30-E019-11D5-929B-00C0DF256EC4}
  9
$VERSIONGUID
  2
{FAEB1C32-E019-11D5-929B-00C0DF256EC4}
  9
$EXTNAMES
290
     1
  9
$PSVPSCALE
 40
0.0
  9
$OLESTARTUP
290
     0
  9
$SORTENTS
280
   127
  9
$INDEXCTL
280
     0
  9
$HIDETEXT
280
     1
  9
$XCLIPFRAME
290
     0
  9
$HALOGAP
280
     0
  9
$OBSCOLOR
 70
   257
  9
$OBSLTYPE
280
     0
  9
$INTERSECTIONDISPLAY
280
     0
  9
$INTERSECTIONCOLOR
 70
   257
  9
$DIMASSOC
280
     2
  9
$PROJECTNAME
  1

  0
ENDSEC
  0
SECTION
  2
CLASSES
  0
CLASS
  1
ACDBDICTIONARYWDFLT
  2
AcDbDictionaryWithDefault
  3
ObjectDBX Classes
 90
        0
 91
        1
280
     0
281
     0
  0
ENDSEC
  0
SECTION
  2
TABLES
  0
TABLE
  2
VPORT
  5
8
330
0
100
AcDbSymbolTable
 70
     2
  0
VPORT
  5
29
330
8
100
AcDbSymbolTableRecord
100
AcDbViewportTableRecord
  2
*Active
 70
     0
 10
0.0
 20
0.0
 11
1.0
 21
1.0
 12
10.42990654205607
 22
4.5
 13
0.0
 23
0.0
 14
0.5
 24
0.5
 15
0.5
 25
0.5
 16
0.0
 26
0.0
 36
1.0
 17
0.0
 27
0.0
 37
0.0
 40
9.0
 41
1.972972972850329
 42
50.0
 43
0.0
 44
0.0
 50
0.0
 51
0.0
 71
     0
 72
   100
 73
     1
 74
     3
 75
     0
 76
     0
 77
     0
 78
     0
281
     0
 65
     1
110
0.0
120
0.0
130
0.0
111
1.0
121
0.0
131
0.0
112
0.0
122
1.0
132
0.0
 79
     0
146
0.0
  0
ENDTAB
  0
TABLE
  2
LTYPE
  5
5
330
0
100
AcDbSymbolTable
 70
     1
  0
LTYPE
  5
14
330
5
100
AcDbSymbolTableRecord
100
AcDbLinetypeTableRecord
  2
ByBlock
 70
     0
  3

 72
    65
 73
     0
 40
0.0
  0
LTYPE
  5
15
330
5
100
AcDbSymbolTableRecord
100
AcDbLinetypeTableRecord
  2
ByLayer
 70
     0
  3

 72
    65
 73
     0
 40
0.0
  0
LTYPE
  5
16
330
5
100
AcDbSymbolTableRecord
100
AcDbLinetypeTableRecord
  2
Continuous
 70
     0
  3
Solid line
 72
    65
 73
     0
 40
0.0
  0
ENDTAB
  0
TABLE
  2
LAYER
  5
2
330
0
100
AcDbSymbolTable
 70
     2
  0
LAYER
  5
10
330
2
100
AcDbSymbolTableRecord
100
AcDbLayerTableRecord
  2
0
 70
     0
 62
     7
  6
Continuous
370
    -3
390
F
  0
LAYER
  5
2B
330
2
100
AcDbSymbolTableRecord
100
AcDbLayerTableRecord
  2
Layer 1
 70
     0
 62
     7
  6
Continuous
370
    -3
390
F
  0
ENDTAB
  0
TABLE
  2
STYLE
  5
3
330
0
100
AcDbSymbolTable
 70
     1
  0
STYLE
  5
11
330
3
100
AcDbSymbolTableRecord
100
AcDbTextStyleTableRecord
  2
Standard
 70
     0
 40
0.0
 41
1.0
 50
0.0
 71
     0
 42
0.2
  3
txt
  4

  0
ENDTAB
  0
TABLE
  2
VIEW
  5
6
330
0
100
AcDbSymbolTable
 70
     0
  0
ENDTAB
  0
TABLE
  2
UCS
  5
7
330
0
100
AcDbSymbolTable
 70
     0
  0
ENDTAB
  0
TABLE
  2
APPID
  5
9
330
0
100
AcDbSymbolTable
 70
     2
  0
APPID
  5
12
330
9
100
AcDbSymbolTableRecord
100
AcDbRegAppTableRecord
  2
ACAD
 70
     0
  0
APPID
  5
2A
330
9
100
AcDbSymbolTableRecord
100
AcDbRegAppTableRecord
  2
ODA
 70
     0
  0
ENDTAB
  0
TABLE
  2
DIMSTYLE
  5
A
330
0
100
AcDbSymbolTable
 70
     1
100
AcDbDimStyleTable
  0
DIMSTYLE
105
27
330
A
100
AcDbSymbolTableRecord
100
AcDbDimStyleTableRecord
  2
Standard
 70
     0
340
11
  0
ENDTAB
  0
TABLE
  2
BLOCK_RECORD
  5
1
330
0
100
AcDbSymbolTable
 70
     1
  0
BLOCK_RECORD
  5
1F
330
1
100
AcDbSymbolTableRecord
100
AcDbBlockTableRecord
  2
*Model_Space
340
22
  0
BLOCK_RECORD
  5
1B
330
1
100
AcDbSymbolTableRecord
100
AcDbBlockTableRecord
  2
*Paper_Space
340
1E
  0
BLOCK_RECORD
  5
23
330
1
100
AcDbSymbolTableRecord
100
AcDbBlockTableRecord
  2
*Paper_Space0
340
26
  0
ENDTAB
  0
ENDSEC
  0
SECTION
  2
BLOCKS
  0
BLOCK
  5
20
330
1F
100
AcDbEntity
  8
0
100
AcDbBlockBegin
  2
*Model_Space
 70
     0
 71
     0
 10
0.0
 20
0.0
 30
0.0
  3
*Model_Space
  1

  0
ENDBLK
  5
21
330
1F
100
AcDbEntity
  8
0
100
AcDbBlockEnd
  0
BLOCK
  5
1C
330
1B
100
AcDbEntity
 67
     1
  8
0
100
AcDbBlockBegin
  2
*Paper_Space
 70
     0
 71
     0
 10
0.0
 20
0.0
 30
0.0
  3
*Paper_Space
  1

  0
ENDBLK
  5
1D
330
1B
100
AcDbEntity
 67
     1
  8
0
100
AcDbBlockEnd
  0
BLOCK
  5
24
330
23
100
AcDbEntity
  8
0
100
AcDbBlockBegin
  2
*Paper_Space0
 70
     0
 71
     0
 10
0.0
 20
0.0
 30
0.0
  3
*Paper_Space0
  1

  0
ENDBLK
  5
25
330
23
100
AcDbEntity
  8
0
100
AcDbBlockEnd
  0
ENDSEC
  0
SECTION
  2
ENTITIES
  0
SPLINE
  5
2C
330
1F
100
AcDbEntity
  8
Layer 1
 62
   250
370
     5
100
AcDbSpline
210
0.0
220
0.0
230
1.0
 70
     8
 71
     3
 72
    28
 73
    24
 74
     0
 42
0.0000000001
 43
0.0000000001
 40
0.0
 40
0.0
 40
0.0
 40
0.0
 40
0.1666666666666667
 40
0.1666666666666667
 40
0.1666666666666667
 40
0.1666666666666667
 40
0.3333333333333333
 40
0.3333333333333333
 40
0.3333333333333333
 40
0.3333333333333333
 40
0.5
 40
0.5
 40
0.5
 40
0.5
 40
0.6666666666666666
 40
0.6666666666666666
 40
0.6666666666666666
 40
0.6666666666666666
 40
0.8333333333333333
 40
0.8333333333333333
 40
0.8333333333333333
 40
0.8333333333333333
 40
1.0
 40
1.0
 40
1.0
 40
1.0
 10
-756.2881
 20
316.7776
 30
0.0
 10
-785.1824
 20
316.7776
 30
0.0
 10
-807.1446000000001
 20
314.9263
 30
0.0
 10
-841.2881
 20
299.7776
 30
0.0
 10
-841.2881
 20
299.7776
 30
0.0
 10
-865.8843000000001
 20
288.8648
 30
0.0
 10
-921.0432000000001
 20
251.5424
 30
0.0
 10
-926.288
 20
191.7776
 30
0.0
 10
-926.288
 20
191.7776
 30
0.0
 10
-931.5328000000001
 20
132.0128
 30
0.0
 10
-931.7881000000001
 20
99.9799
 30
0.0
 10
-931.7881000000001
 20
52.7776
 30
0.0
 10
-931.7881000000001
 20
52.7776
 30
0.0
 10
-931.7881000000001
 20
5.5753
 30
0.0
 10
-932.3559
 20
-39.5065
 30
0.0
 10
-926.288
 20
-91.22240000000001
 30
0.0
 10
-926.288
 20
-91.22240000000001
 30
0.0
 10
-918.5833
 20
-156.8889
 30
0.0
 10
-884.9712000000001
 20
-203.4898
 30
0.0
 10
-826.288
 20
-208.2224
 30
0.0
 10
-826.288
 20
-208.2224
 30
0.0
 10
-796.6541000000001
 20
-210.6123
 30
0.0
 10
-779.6427
 20
-211.2224
 30
0.0
 10
-756.2881
 20
-211.2224
 30
0.0
  0
SPLINE
  5
2D
330
1F
100
AcDbEntity
  8
Layer 1
 62
   250
370
     5
100
AcDbSpline
210
0.0
220
0.0
230
1.0
 70
     8
 71
     3
 72
    28
 73
    24
 74
     0
 42
0.0000000001
 43
0.0000000001
 40
0.0
 40
0.0
 40
0.0
 40
0.0
 40
0.1666666666666667
 40
0.1666666666666667
 40
0.1666666666666667
 40
0.1666666666666667
 40
0.3333333333333333
 40
0.3333333333333333
 40
0.3333333333333333
 40
0.3333333333333333
 40
0.5
 40
0.5
 40
0.5
 40
0.5
 40
0.6666666666666666
 40
0.6666666666666666
 40
0.6666666666666666
 40
0.6666666666666666
 40
0.8333333333333333
 40
0.8333333333333333
 40
0.8333333333333333
 40
0.8333333333333333
 40
1.0
 40
1.0
 40
1.0
 40
1.0
 10
-756.2881
 20
316.7776
 30
0.0
 10
-727.3938000000001
 20
316.7776
 30
0.0
 10
-705.4316
 20
314.9263
 30
0.0
 10
-671.2881
 20
299.7776
 30
0.0
 10
-671.2881
 20
299.7776
 30
0.0
 10
-646.6919
 20
288.8648
 30
0.0
 10
-591.533
 20
251.5424
 30
0.0
 10
-586.2882000000001
 20
191.7776
 30
0.0
 10
-586.2882000000001
 20
191.7776
 30
0.0
 10
-581.0434
 20
132.0128
 30
0.0
 10
-580.7881
 20
99.9799
 30
0.0
 10
-580.7881
 20
52.7776
 30
0.0
 10
-580.7881
 20
52.7776
 30
0.0
 10
-580.7881
 20
5.5753
 30
0.0
 10
-580.2203000000001
 20
-39.5065
 30
0.0
 10
-586.2882000000001
 20
-91.22240000000001
 30
0.0
 10
-586.2882000000001
 20
-91.22240000000001
 30
0.0
 10
-593.9929000000001
 20
-156.8889
 30
0.0
 10
-627.605
 20
-203.4898
 30
0.0
 10
-686.2882000000001
 20
-208.2224
 30
0.0
 10
-686.2882000000001
 20
-208.2224
 30
0.0
 10
-715.9221
 20
-210.6123
 30
0.0
 10
-732.9335
 20
-211.2224
 30
0.0
 10
-756.2881
 20
-211.2224
 30
0.0
  0
SPLINE
  5
2E
330
1F
100
AcDbEntity
  8
Layer 1
 62
   250
370
     5
100
AcDbSpline
210
0.0
220
0.0
230
1.0
 70
     8
 71
     3
 72
    28
 73
    24
 74
     0
 42
0.0000000001
 43
0.0000000001
 40
0.0
 40
0.0
 40
0.0
 40
0.0
 40
0.1666666666666667
 40
0.1666666666666667
 40
0.1666666666666667
 40
0.1666666666666667
 40
0.3333333333333333
 40
0.3333333333333333
 40
0.3333333333333333
 40
0.3333333333333333
 40
0.5
 40
0.5
 40
0.5
 40
0.5
 40
0.6666666666666666
 40
0.6666666666666666
 40
0.6666666666666666
 40
0.6666666666666666
 40
0.8333333333333333
 40
0.8333333333333333
 40
0.8333333333333333
 40
0.8333333333333333
 40
1.0
 40
1.0
 40
1.0
 40
1.0
 10
-756.2881
 20
291.7776
 30
0.0
 10
-780.9821000000001
 20
291.7776
 30
0.0
 10
-799.7517
 20
290.1016
 30
0.0
 10
-828.9318000000001
 20
276.3874
 30
0.0
 10
-828.9318000000001
 20
276.3874
 30
0.0
 10
-849.9525
 20
266.5081
 30
0.0
 10
-897.0931000000001
 20
232.72
 30
0.0
 10
-901.5755
 20
178.6147
 30
0.0
 10
-901.5755
 20
178.6147
 30
0.0
 10
-906.0579
 20
124.5095
 30
0.0
 10
-906.2761
 20
95.51000000000001
 30
0.0
 10
-906.2761
 20
52.7776
 30
0.0
 10
-906.2761
 20
52.7776
 30
0.0
 10
-906.2761
 20
10.0452
 30
0.0
 10
-906.7613
 20
-30.7675
 30
0.0
 10
-901.5755
 20
-77.586
 30
0.0
 10
-901.5755
 20
-77.586
 30
0.0
 10
-894.9908
 20
-137.0341
 30
0.0
 10
-866.2648
 20
-179.2221
 30
0.0
 10
-816.1123
 20
-183.5065
 30
0.0
 10
-816.1123
 20
-183.5065
 30
0.0
 10
-790.7862
 20
-185.6701
 30
0.0
 10
-776.2477
 20
-186.2224
 30
0.0
 10
-756.2881
 20
-186.2224
 30
0.0
  0
SPLINE
  5
2F
330
1F
100
AcDbEntity
  8
Layer 1
 62
   250
370
     5
100
AcDbSpline
210
0.0
220
0.0
230
1.0
 70
     8
 71
     3
 72
    28
 73
    24
 74
     0
 42
0.0000000001
 43
0.0000000001
 40
0.0
 40
0.0
 40
0.0
 40
0.0
 40
0.1666666666666667
 40
0.1666666666666667
 40
0.1666666666666667
 40
0.1666666666666667
 40
0.3333333333333333
 40
0.3333333333333333
 40
0.3333333333333333
 40
0.3333333333333333
 40
0.5
 40
0.5
 40
0.5
 40
0.5
 40
0.6666666666666666
 40
0.6666666666666666
 40
0.6666666666666666
 40
0.6666666666666666
 40
0.8333333333333333
 40
0.8333333333333333
 40
0.8333333333333333
 40
0.8333333333333333
 40
1.0
 40
1.0
 40
1.0
 40
1.0
 10
-756.2881
 20
291.7776
 30
0.0
 10
-731.5941
 20
291.7776
 30
0.0
 10
-712.8245000000001
 20
290.1016
 30
0.0
 10
-683.6444
 20
276.3874
 30
0.0
 10
-683.6444
 20
276.3874
 30
0.0
 10
-662.6237
 20
266.5081
 30
0.0
 10
-615.4831
 20
232.72
 30
0.0
 10
-611.0007000000001
 20
178.6147
 30
0.0
 10
-611.0007000000001
 20
178.6147
 30
0.0
 10
-606.5183000000001
 20
124.5095
 30
0.0
 10
-606.3001
 20
95.51000000000001
 30
0.0
 10
-606.3001
 20
52.7776
 30
0.0
 10
-606.3001
 20
52.7776
 30
0.0
 10
-606.3001
 20
10.0452
 30
0.0
 10
-605.8149000000001
 20
-30.7675
 30
0.0
 10
-611.0007000000001
 20
-77.586
 30
0.0
 10
-611.0007000000001
 20
-77.586
 30
0.0
 10
-617.5854000000001
 20
-137.0341
 30
0.0
 10
-646.3114000000001
 20
-179.2221
 30
0.0
 10
-696.4639000000001
 20
-183.5065
 30
0.0
 10
-696.4639000000001
 20
-183.5065
 30
0.0
 10
-721.7900000000001
 20
-185.6701
 30
0.0
 10
-736.3285000000001
 20
-186.2224
 30
0.0
 10
-756.2881
 20
-186.2224
 30
0.0
  0
ELLIPSE
  5
30
330
1F
100
AcDbEntity
  8
Layer 1
 62
   250
370
     5
100
AcDbEllipse
 10
-756.2881
 20
109.2778
 30
0.0
 11
0.0
 21
57.5
 31
0.0
210
0.0
220
0.0
230
0.9999999999999999
 40
1.0
 41
0.0
 42
6.283185307179586
  0
SPLINE
  5
31
330
1F
100
AcDbEntity
  8
Layer 1
 62
   250
370
     5
100
AcDbSpline
210
0.0
220
0.0
230
1.0
 70
     8
 71
     3
 72
    28
 73
    24
 74
     0
 42
0.0000000001
 43
0.0000000001
 40
0.0
 40
0.0
 40
0.0
 40
0.0
 40
0.1666666666666667
 40
0.1666666666666667
 40
0.1666666666666667
 40
0.1666666666666667
 40
0.3333333333333333
 40
0.3333333333333333
 40
0.3333333333333333
 40
0.3333333333333333
 40
0.5
 40
0.5
 40
0.5
 40
0.5
 40
0.6666666666666666
 40
0.6666666666666666
 40
0.6666666666666666
 40
0.6666666666666666
 40
0.8333333333333333
 40
0.8333333333333333
 40
0.8333333333333333
 40
0.8333333333333333
 40
1.0
 40
1.0
 40
1.0
 40
1.0
 10
-756.2881
 20
297.7776
 30
0.0
 10
-781.9698000000001
 20
297.7776
 30
0.0
 10
-801.4902000000001
 20
296.0595
 30
0.0
 10
-831.8375000000001
 20
282.001
 30
0.0
 10
-831.8375000000001
 20
282.001
 30
0.0
 10
-853.6990000000001
 20
271.8737
 30
0.0
 10
-902.7252000000001
 20
237.2374
 30
0.0
 10
-907.3869000000001
 20
181.7738
 30
0.0
 10
-907.3869000000001
 20
181.7738
 30
0.0
 10
-912.0486000000001
 20
126.3103
 30
0.0
 10
-912.2755000000001
 20
96.58280000000001
 30
0.0
 10
-912.2755000000001
 20
52.7776
 30
0.0
 10
-912.2755000000001
 20
52.7776
 30
0.0
 10
-912.2755000000001
 20
8.9724
 30
0.0
 10
-912.7801000000001
 20
-32.8649
 30
0.0
 10
-907.3869000000001
 20
-80.8587
 30
0.0
 10
-907.3869000000001
 20
-80.8587
 30
0.0
 10
-900.5388
 20
-141.7993
 30
0.0
 10
-870.6638
 20
-185.0464
 30
0.0
 10
-818.5052000000001
 20
-189.4383
 30
0.0
 10
-818.5052000000001
 20
-189.4383
 30
0.0
 10
-792.1661
 20
-191.6562
 30
0.0
 10
-777.0461
 20
-192.2224
 30
0.0
 10
-756.2881
 20
-192.2224
 30
0.0
  0
SPLINE
  5
32
330
1F
100
AcDbEntity
  8
Layer 1
 62
   250
370
     5
100
AcDbSpline
210
0.0
220
0.0
230
1.0
 70
     8
 71
     3
 72
    28
 73
    24
 74
     0
 42
0.0000000001
 43
0.0000000001
 40
0.0
 40
0.0
 40
0.0
 40
0.0
 40
0.1666666666666667
 40
0.1666666666666667
 40
0.1666666666666667
 40
0.1666666666666667
 40
0.3333333333333333
 40
0.3333333333333333
 40
0.3333333333333333
 40
0.3333333333333333
 40
0.5
 40
0.5
 40
0.5
 40
0.5
 40
0.6666666666666666
 40
0.6666666666666666
 40
0.6666666666666666
 40
0.6666666666666666
 40
0.8333333333333333
 40
0.8333333333333333
 40
0.8333333333333333
 40
0.8333333333333333
 40
1.0
 40
1.0
 40
1.0
 40
1.0
 10
-756.2881
 20
297.7776
 30
0.0
 10
-730.6064
 20
297.7776
 30
0.0
 10
-711.086
 20
296.0595
 30
0.0
 10
-680.7387
 20
282.001
 30
0.0
 10
-680.7387
 20
282.001
 30
0.0
 10
-658.8772
 20
271.8737
 30
0.0
 10
-609.851
 20
237.2374
 30
0.0
 10
-605.1893
 20
181.7738
 30
0.0
 10
-605.1893
 20
181.7738
 30
0.0
 10
-600.5276
 20
126.3103
 30
0.0
 10
-600.3007
 20
96.58280000000001
 30
0.0
 10
-600.3007
 20
52.7776
 30
0.0
 10
-600.3007
 20
52.7776
 30
0.0
 10
-600.3007
 20
8.9724
 30
0.0
 10
-599.7961
 20
-32.8649
 30
0.0
 10
-605.1893
 20
-80.8587
 30
0.0
 10
-605.1893
 20
-80.8587
 30
0.0
 10
-612.0374000000001
 20
-141.7993
 30
0.0
 10
-641.9124000000001
 20
-185.0464
 30
0.0
 10
-694.071
 20
-189.4383
 30
0.0
 10
-694.071
 20
-189.4383
 30
0.0
 10
-720.4101000000001
 20
-191.6562
 30
0.0
 10
-735.5301000000001
 20
-192.2224
 30
0.0
 10
-756.2881
 20
-192.2224
 30
0.0
  0
SPLINE
  5
33
330
1F
100
AcDbEntity
  8
Layer 1
 62
   250
100
AcDbSpline
210
0.0
220
0.0
230
1.0
 70
    11
 71
     3
 72
    80
 73
    76
 74
     0
 42
0.0000000001
 43
0.0000000001
 40
0.0
 40
0.0
 40
0.0
 40
0.0
 40
0.0526315789473684
 40
0.0526315789473684
 40
0.0526315789473684
 40
0.0526315789473684
 40
0.1052631578947368
 40
0.1052631578947368
 40
0.1052631578947368
 40
0.1052631578947368
 40
0.1578947368421053
 40
0.1578947368421053
 40
0.1578947368421053
 40
0.1578947368421053
 40
0.2105263157894737
 40
0.2105263157894737
 40
0.2105263157894737
 40
0.2105263157894737
 40
0.2631578947368421
 40
0.2631578947368421
 40
0.2631578947368421
 40
0.2631578947368421
 40
0.3157894736842105
 40
0.3157894736842105
 40
0.3157894736842105
 40
0.3157894736842105
 40
0.3684210526315789
 40
0.3684210526315789
 40
0.3684210526315789
 40
0.3684210526315789
 40
0.4210526315789474
 40
0.4210526315789474
 40
0.4210526315789474
 40
0.4210526315789474
 40
0.4736842105263158
 40
0.4736842105263158
 40
0.4736842105263158
 40
0.4736842105263158
 40
0.5263157894736842
 40
0.5263157894736842
 40
0.5263157894736842
 40
0.5263157894736842
 40
0.5789473684210527
 40
0.5789473684210527
 40
0.5789473684210527
 40
0.5789473684210527
 40
0.631578947368421
 40
0.631578947368421
 40
0.631578947368421
 40
0.631578947368421
 40
0.6842105263157894
 40
0.6842105263157894
 40
0.6842105263157894
 40
0.6842105263157894
 40
0.7368421052631577
 40
0.7368421052631577
 40
0.7368421052631577
 40
0.7368421052631577
 40
0.7894736842105261
 40
0.7894736842105261
 40
0.7894736842105261
 40
0.7894736842105261
 40
0.8421052631578945
 40
0.8421052631578945
 40
0.8421052631578945
 40
0.8421052631578945
 40
0.8947368421052628
 40
0.8947368421052628
 40
0.8947368421052628
 40
0.8947368421052628
 40
0.9473684210526312
 40
0.9473684210526312
 40
0.9473684210526312
 40
0.9473684210526312
 40
1.0
 40
1.0
 40
1.0
 40
1.0
 10
-861.2132
 20
199.8565
 30
0.0
 10
-861.2132
 20
199.8565
 30
0.0
 10
-862.3224
 20
199.7697
 30
0.0
 10
-862.3224
 20
199.7697
 30
0.0
 10
-862.3224
 20
199.7697
 30
0.0
 10
-862.4219000000001
 20
200.2078
 30
0.0
 10
-862.5616
 20
200.5274
 30
0.0
 10
-862.7436
 20
200.7243
 30
0.0
 10
-862.7436
 20
200.7243
 30
0.0
 10
-863.0463000000001
 20
201.0439
 30
0.0
 10
-863.4188
 20
201.2027
 30
0.0
 10
-863.8612000000001
 20
201.2027
 30
0.0
 10
-863.8612000000001
 20
201.2027
 30
0.0
 10
-864.2168
 20
201.2027
 30
0.0
 10
-864.5279000000001
 20
201.1032
 30
0.0
 10
-864.7968000000001
 20
200.9042
 30
0.0
 10
-864.7968000000001
 20
200.9042
 30
0.0
 10
-865.1481
 20
200.6481
 30
0.0
 10
-865.4254000000001
 20
200.2734
 30
0.0
 10
-865.6286
 20
199.7824
 30
0.0
 10
-865.6286
 20
199.7824
 30
0.0
 10
-865.8297
 20
199.2913
 30
0.0
 10
-865.9355000000001
 20
198.5907
 30
0.0
 10
-865.9440000000001
 20
197.6805
 30
0.0
 10
-865.9440000000001
 20
197.6805
 30
0.0
 10
-865.6752
 20
198.089
 30
0.0
 10
-865.3471000000001
 20
198.3938
 30
0.0
 10
-864.9576000000001
 20
198.5928
 30
0.0
 10
-864.9576000000001
 20
198.5928
 30
0.0
 10
-864.5703000000001
 20
198.7897
 30
0.0
 10
-864.1618000000001
 20
198.8891
 30
0.0
 10
-863.7363
 20
198.8891
 30
0.0
 10
-863.7363
 20
198.8891
 30
0.0
 10
-862.9912000000001
 20
198.8891
 30
0.0
 10
-862.3584000000001
 20
198.6161
 30
0.0
 10
-861.8355
 20
198.0679
 30
0.0
 10
-861.8355
 20
198.0679
 30
0.0
 10
-861.3127000000001
 20
197.5197
 30
0.0
 10
-861.0503
 20
196.8127
 30
0.0
 10
-861.0503
 20
195.9449
 30
0.0
 10
-861.0503
 20
195.9449
 30
0.0
 10
-861.0503
 20
195.3734
 30
0.0
 10
-861.1751
 20
194.8442
 30
0.0
 10
-861.4207
 20
194.3531
 30
0.0
 10
-861.4207
 20
194.3531
 30
0.0
 10
-861.6662
 20
193.8642
 30
0.0
 10
-862.0049
 20
193.4874
 30
0.0
 10
-862.4346000000001
 20
193.2271
 30
0.0
 10
-862.4346000000001
 20
193.2271
 30
0.0
 10
-862.8642000000001
 20
192.9667
 30
0.0
 10
-863.3511000000001
 20
192.8376
 30
0.0
 10
-863.8972
 20
192.8376
 30
0.0
 10
-863.8972
 20
192.8376
 30
0.0
 10
-864.8285000000001
 20
192.8376
 30
0.0
 10
-865.5863000000001
 20
193.1784
 30
0.0
 10
-866.1726
 20
193.8642
 30
0.0
 10
-866.1726
 20
193.8642
 30
0.0
 10
-866.7610000000001
 20
194.5479
 30
0.0
 10
-867.0531000000001
 20
195.676
 30
0.0
 10
-867.0531000000001
 20
197.2466
 30
0.0
 10
-867.0531000000001
 20
197.2466
 30
0.0
 10
-867.0531000000001
 20
199.0034
 30
0.0
 10
-866.7293000000001
 20
200.2798
 30
0.0
 10
-866.0795000000001
 20
201.0778
 30
0.0
 10
-866.0795000000001
 20
201.0778
 30
0.0
 10
-865.5143000000001
 20
201.772
 30
0.0
 10
-864.7523
 20
202.1213
 30
0.0
 10
-863.7913000000001
 20
202.1213
 30
0.0
 10
-863.7913000000001
 20
202.1213
 30
0.0
 10
-863.0780000000001
 20
202.1213
 30
0.0
 10
-862.4917
 20
201.9202
 30
0.0
 10
-862.0345000000001
 20
201.518
 30
0.0
 10
-862.0345000000001
 20
201.518
 30
0.0
 10
-861.5773
 20
201.118
 30
0.0
 10
-861.3043
 20
200.5634
 30
0.0
 10
-861.2132
 20
199.8565
 30
0.0
  0
SPLINE
  5
34
330
1F
100
AcDbEntity
  8
Layer 1
 62
   250
100
AcDbSpline
210
0.0
220
0.0
230
1.0
 70
    11
 71
     3
 72
    40
 73
    36
 74
     0
 42
0.0000000001
 43
0.0000000001
 40
0.0
 40
0.0
 40
0.0
 40
0.0
 40
0.1111111111111111
 40
0.1111111111111111
 40
0.1111111111111111
 40
0.1111111111111111
 40
0.2222222222222222
 40
0.2222222222222222
 40
0.2222222222222222
 40
0.2222222222222222
 40
0.3333333333333333
 40
0.3333333333333333
 40
0.3333333333333333
 40
0.3333333333333333
 40
0.4444444444444444
 40
0.4444444444444444
 40
0.4444444444444444
 40
0.4444444444444444
 40
0.5555555555555556
 40
0.5555555555555556
 40
0.5555555555555556
 40
0.5555555555555556
 40
0.6666666666666667
 40
0.6666666666666667
 40
0.6666666666666667
 40
0.6666666666666667
 40
0.7777777777777779
 40
0.7777777777777779
 40
0.7777777777777779
 40
0.7777777777777779
 40
0.8888888888888891
 40
0.8888888888888891
 40
0.8888888888888891
 40
0.8888888888888891
 40
1.0
 40
1.0
 40
1.0
 40
1.0
 10
-865.7704
 20
195.9385
 30
0.0
 10
-865.7704
 20
195.5533
 30
0.0
 10
-865.6879
 20
195.185
 30
0.0
 10
-865.5249
 20
194.8336
 30
0.0
 10
-865.5249
 20
194.8336
 30
0.0
 10
-865.3619
 20
194.4822
 30
0.0
 10
-865.1333000000001
 20
194.2155
 30
0.0
 10
-864.8412000000001
 20
194.0314
 30
0.0
 10
-864.8412000000001
 20
194.0314
 30
0.0
 10
-864.547
 20
193.8472
 30
0.0
 10
-864.2380000000001
 20
193.7541
 30
0.0
 10
-863.9162
 20
193.7541
 30
0.0
 10
-863.9162
 20
193.7541
 30
0.0
 10
-863.4442
 20
193.7541
 30
0.0
 10
-863.0399
 20
193.9446
 30
0.0
 10
-862.7013000000001
 20
194.3256
 30
0.0
 10
-862.7013000000001
 20
194.3256
 30
0.0
 10
-862.3626
 20
194.7066
 30
0.0
 10
-862.1933
 20
195.2231
 30
0.0
 10
-862.1933
 20
195.875
 30
0.0
 10
-862.1933
 20
195.875
 30
0.0
 10
-862.1933
 20
196.5037
 30
0.0
 10
-862.3605
 20
196.999
 30
0.0
 10
-862.6949000000001
 20
197.3609
 30
0.0
 10
-862.6949000000001
 20
197.3609
 30
0.0
 10
-863.0293
 20
197.7229
 30
0.0
 10
-863.4506
 20
197.9028
 30
0.0
 10
-863.9586000000001
 20
197.9028
 30
0.0
 10
-863.9586000000001
 20
197.9028
 30
0.0
 10
-864.4644000000001
 20
197.9028
 30
0.0
 10
-864.8920000000001
 20
197.7229
 30
0.0
 10
-865.2434000000001
 20
197.3609
 30
0.0
 10
-865.2434000000001
 20
197.3609
 30
0.0
 10
-865.5947
 20
196.999
 30
0.0
 10
-865.7704
 20
196.5248
 30
0.0
 10
-865.7704
 20
195.9385
 30
0.0
  0
SPLINE
  5
35
330
1F
100
AcDbEntity
  8
Layer 1
 62
   250
100
AcDbSpline
210
0.0
220
0.0
230
1.0
 70
    11
 71
     3
 72
   116
 73
   112
 74
     0
 42
0.0000000001
 43
0.0000000001
 40
0.0
 40
0.0
 40
0.0
 40
0.0
 40
0.0357142857142857
 40
0.0357142857142857
 40
0.0357142857142857
 40
0.0357142857142857
 40
0.0714285714285714
 40
0.0714285714285714
 40
0.0714285714285714
 40
0.0714285714285714
 40
0.1071428571428571
 40
0.1071428571428571
 40
0.1071428571428571
 40
0.1071428571428571
 40
0.1428571428571429
 40
0.1428571428571429
 40
0.1428571428571429
 40
0.1428571428571429
 40
0.1785714285714286
 40
0.1785714285714286
 40
0.1785714285714286
 40
0.1785714285714286
 40
0.2142857142857143
 40
0.2142857142857143
 40
0.2142857142857143
 40
0.2142857142857143
 40
0.2499999999999999
 40
0.2499999999999999
 40
0.2499999999999999
 40
0.2499999999999999
 40
0.2857142857142856
 40
0.2857142857142856
 40
0.2857142857142856
 40
0.2857142857142856
 40
0.3214285714285713
 40
0.3214285714285713
 40
0.3214285714285713
 40
0.3214285714285713
 40
0.357142857142857
 40
0.357142857142857
 40
0.357142857142857
 40
0.357142857142857
 40
0.3928571428571427
 40
0.3928571428571427
 40
0.3928571428571427
 40
0.3928571428571427
 40
0.4285714285714284
 40
0.4285714285714284
 40
0.4285714285714284
 40
0.4285714285714284
 40
0.4642857142857141
 40
0.4642857142857141
 40
0.4642857142857141
 40
0.4642857142857141
 40
0.4999999999999998
 40
0.4999999999999998
 40
0.4999999999999998
 40
0.4999999999999998
 40
0.5357142857142856
 40
0.5357142857142856
 40
0.5357142857142856
 40
0.5357142857142856
 40
0.5714285714285713
 40
0.5714285714285713
 40
0.5714285714285713
 40
0.5714285714285713
 40
0.607142857142857
 40
0.607142857142857
 40
0.607142857142857
 40
0.607142857142857
 40
0.6428571428571427
 40
0.6428571428571427
 40
0.6428571428571427
 40
0.6428571428571427
 40
0.6785714285714284
 40
0.6785714285714284
 40
0.6785714285714284
 40
0.6785714285714284
 40
0.7142857142857141
 40
0.7142857142857141
 40
0.7142857142857141
 40
0.7142857142857141
 40
0.7499999999999998
 40
0.7499999999999998
 40
0.7499999999999998
 40
0.7499999999999998
 40
0.7857142857142855
 40
0.7857142857142855
 40
0.7857142857142855
 40
0.7857142857142855
 40
0.8214285714285712
 40
0.8214285714285712
 40
0.8214285714285712
 40
0.8214285714285712
 40
0.8571428571428569
 40
0.8571428571428569
 40
0.8571428571428569
 40
0.8571428571428569
 40
0.8928571428571426
 40
0.8928571428571426
 40
0.8928571428571426
 40
0.8928571428571426
 40
0.9285714285714283
 40
0.9285714285714283
 40
0.9285714285714283
 40
0.9285714285714283
 40
0.964285714285714
 40
0.964285714285714
 40
0.964285714285714
 40
0.964285714285714
 40
1.0
 40
1.0
 40
1.0
 40
1.0
 10
-859.63
 20
192.9921
 30
0.0
 10
-859.63
 20
192.9921
 30
0.0
 10
-859.63
 20
199.5771
 30
0.0
 10
-859.63
 20
199.5771
 30
0.0
 10
-859.63
 20
199.5771
 30
0.0
 10
-859.63
 20
199.5771
 30
0.0
 10
-858.633
 20
199.5771
 30
0.0
 10
-858.633
 20
199.5771
 30
0.0
 10
-858.633
 20
199.5771
 30
0.0
 10
-858.633
 20
199.5771
 30
0.0
 10
-858.633
 20
198.6542
 30
0.0
 10
-858.633
 20
198.6542
 30
0.0
 10
-858.633
 20
198.6542
 30
0.0
 10
-858.4256
 20
198.9759
 30
0.0
 10
-858.1504
 20
199.2363
 30
0.0
 10
-857.8075
 20
199.431
 30
0.0
 10
-857.8075
 20
199.431
 30
0.0
 10
-857.4646
 20
199.6279
 30
0.0
 10
-857.0731000000001
 20
199.7273
 30
0.0
 10
-856.6349
 20
199.7273
 30
0.0
 10
-856.6349
 20
199.7273
 30
0.0
 10
-856.1481
 20
199.7273
 30
0.0
 10
-855.7480000000001
 20
199.6257
 30
0.0
 10
-855.4369
 20
199.4225
 30
0.0
 10
-855.4369
 20
199.4225
 30
0.0
 10
-855.1236
 20
199.2193
 30
0.0
 10
-854.9035
 20
198.9378
 30
0.0
 10
-854.7765000000001
 20
198.5738
 30
0.0
 10
-854.7765000000001
 20
198.5738
 30
0.0
 10
-854.2537000000001
 20
199.3421
 30
0.0
 10
-853.5763000000001
 20
199.7273
 30
0.0
 10
-852.7424000000001
 20
199.7273
 30
0.0
 10
-852.7424000000001
 20
199.7273
 30
0.0
 10
-852.0883
 20
199.7273
 30
0.0
 10
-851.5867000000001
 20
199.5453
 30
0.0
 10
-851.2353000000001
 20
199.1834
 30
0.0
 10
-851.2353000000001
 20
199.1834
 30
0.0
 10
-850.8839
 20
198.8214
 30
0.0
 10
-850.7082
 20
198.2647
 30
0.0
 10
-850.7082
 20
197.5133
 30
0.0
 10
-850.7082
 20
197.5133
 30
0.0
 10
-850.7082
 20
197.5133
 30
0.0
 10
-850.7082
 20
192.9921
 30
0.0
 10
-850.7082
 20
192.9921
 30
0.0
 10
-850.7082
 20
192.9921
 30
0.0
 10
-850.7082
 20
192.9921
 30
0.0
 10
-851.8174
 20
192.9921
 30
0.0
 10
-851.8174
 20
192.9921
 30
0.0
 10
-851.8174
 20
192.9921
 30
0.0
 10
-851.8174
 20
192.9921
 30
0.0
 10
-851.8174
 20
197.1408
 30
0.0
 10
-851.8174
 20
197.1408
 30
0.0
 10
-851.8174
 20
197.1408
 30
0.0
 10
-851.8174
 20
197.5874
 30
0.0
 10
-851.8534000000001
 20
197.9091
 30
0.0
 10
-851.9253
 20
198.106
 30
0.0
 10
-851.9253
 20
198.106
 30
0.0
 10
-851.9994
 20
198.3007
 30
0.0
 10
-852.1306000000001
 20
198.4595
 30
0.0
 10
-852.3190000000001
 20
198.5801
 30
0.0
 10
-852.3190000000001
 20
198.5801
 30
0.0
 10
-852.5095
 20
198.6986
 30
0.0
 10
-852.7339000000001
 20
198.76
 30
0.0
 10
-852.99
 20
198.76
 30
0.0
 10
-852.99
 20
198.76
 30
0.0
 10
-853.4536000000001
 20
198.76
 30
0.0
 10
-853.8367000000001
 20
198.6055
 30
0.0
 10
-854.1436
 20
198.2965
 30
0.0
 10
-854.1436
 20
198.2965
 30
0.0
 10
-854.4484
 20
197.9896
 30
0.0
 10
-854.6029000000001
 20
197.4964
 30
0.0
 10
-854.6029000000001
 20
196.819
 30
0.0
 10
-854.6029000000001
 20
196.819
 30
0.0
 10
-854.6029000000001
 20
196.819
 30
0.0
 10
-854.6029000000001
 20
192.9921
 30
0.0
 10
-854.6029000000001
 20
192.9921
 30
0.0
 10
-854.6029000000001
 20
192.9921
 30
0.0
 10
-854.6029000000001
 20
192.9921
 30
0.0
 10
-855.7184000000001
 20
192.9921
 30
0.0
 10
-855.7184000000001
 20
192.9921
 30
0.0
 10
-855.7184000000001
 20
192.9921
 30
0.0
 10
-855.7184000000001
 20
192.9921
 30
0.0
 10
-855.7184000000001
 20
197.2699
 30
0.0
 10
-855.7184000000001
 20
197.2699
 30
0.0
 10
-855.7184000000001
 20
197.2699
 30
0.0
 10
-855.7184000000001
 20
197.7673
 30
0.0
 10
-855.8094000000001
 20
198.1398
 30
0.0
 10
-855.9914
 20
198.3875
 30
0.0
 10
-855.9914
 20
198.3875
 30
0.0
 10
-856.1735
 20
198.6351
 30
0.0
 10
-856.4698000000001
 20
198.76
 30
0.0
 10
-856.8847000000001
 20
198.76
 30
0.0
 10
-856.8847000000001
 20
198.76
 30
0.0
 10
-857.1979
 20
198.76
 30
0.0
 10
-857.4879000000001
 20
198.6775
 30
0.0
 10
-857.7546000000001
 20
198.5103
 30
0.0
 10
-857.7546000000001
 20
198.5103
 30
0.0
 10
-858.0213
 20
198.3452
 30
0.0
 10
-858.2161000000001
 20
198.1039
 30
0.0
 10
-858.3346
 20
197.7864
 30
0.0
 10
-858.3346
 20
197.7864
 30
0.0
 10
-858.4552
 20
197.4667
 30
0.0
 10
-858.5145
 20
197.0074
 30
0.0
 10
-858.5145
 20
196.4084
 30
0.0
 10
-858.5145
 20
196.4084
 30
0.0
 10
-858.5145
 20
196.4084
 30
0.0
 10
-858.5145
 20
192.9921
 30
0.0
 10
-858.5145
 20
192.9921
 30
0.0
 10
-858.5145
 20
192.9921
 30
0.0
 10
-858.5145
 20
192.9921
 30
0.0
 10
-859.63
 20
192.9921
 30
0.0
 10
-859.63
 20
192.9921
 30
0.0
  0
SPLINE
  5
36
330
1F
100
AcDbEntity
  8
Layer 1
 62
   250
100
AcDbSpline
210
0.0
220
0.0
230
1.0
 70
    11
 71
     3
 72
   116
 73
   112
 74
     0
 42
0.0000000001
 43
0.0000000001
 40
0.0
 40
0.0
 40
0.0
 40
0.0
 40
0.0357142857142857
 40
0.0357142857142857
 40
0.0357142857142857
 40
0.0357142857142857
 40
0.0714285714285714
 40
0.0714285714285714
 40
0.0714285714285714
 40
0.0714285714285714
 40
0.1071428571428571
 40
0.1071428571428571
 40
0.1071428571428571
 40
0.1071428571428571
 40
0.1428571428571429
 40
0.1428571428571429
 40
0.1428571428571429
 40
0.1428571428571429
 40
0.1785714285714286
 40
0.1785714285714286
 40
0.1785714285714286
 40
0.1785714285714286
 40
0.2142857142857143
 40
0.2142857142857143
 40
0.2142857142857143
 40
0.2142857142857143
 40
0.2499999999999999
 40
0.2499999999999999
 40
0.2499999999999999
 40
0.2499999999999999
 40
0.2857142857142856
 40
0.2857142857142856
 40
0.2857142857142856
 40
0.2857142857142856
 40
0.3214285714285713
 40
0.3214285714285713
 40
0.3214285714285713
 40
0.3214285714285713
 40
0.357142857142857
 40
0.357142857142857
 40
0.357142857142857
 40
0.357142857142857
 40
0.3928571428571427
 40
0.3928571428571427
 40
0.3928571428571427
 40
0.3928571428571427
 40
0.4285714285714284
 40
0.4285714285714284
 40
0.4285714285714284
 40
0.4285714285714284
 40
0.4642857142857141
 40
0.4642857142857141
 40
0.4642857142857141
 40
0.4642857142857141
 40
0.4999999999999998
 40
0.4999999999999998
 40
0.4999999999999998
 40
0.4999999999999998
 40
0.5357142857142856
 40
0.5357142857142856
 40
0.5357142857142856
 40
0.5357142857142856
 40
0.5714285714285713
 40
0.5714285714285713
 40
0.5714285714285713
 40
0.5714285714285713
 40
0.607142857142857
 40
0.607142857142857
 40
0.607142857142857
 40
0.607142857142857
 40
0.6428571428571427
 40
0.6428571428571427
 40
0.6428571428571427
 40
0.6428571428571427
 40
0.6785714285714284
 40
0.6785714285714284
 40
0.6785714285714284
 40
0.6785714285714284
 40
0.7142857142857141
 40
0.7142857142857141
 40
0.7142857142857141
 40
0.7142857142857141
 40
0.7499999999999998
 40
0.7499999999999998
 40
0.7499999999999998
 40
0.7499999999999998
 40
0.7857142857142855
 40
0.7857142857142855
 40
0.7857142857142855
 40
0.7857142857142855
 40
0.8214285714285712
 40
0.8214285714285712
 40
0.8214285714285712
 40
0.8214285714285712
 40
0.8571428571428569
 40
0.8571428571428569
 40
0.8571428571428569
 40
0.8571428571428569
 40
0.8928571428571426
 40
0.8928571428571426
 40
0.8928571428571426
 40
0.8928571428571426
 40
0.9285714285714283
 40
0.9285714285714283
 40
0.9285714285714283
 40
0.9285714285714283
 40
0.964285714285714
 40
0.964285714285714
 40
0.964285714285714
 40
0.964285714285714
 40
1.0
 40
1.0
 40
1.0
 40
1.0
 10
-849.0509000000001
 20
192.9921
 30
0.0
 10
-849.0509000000001
 20
192.9921
 30
0.0
 10
-849.0509000000001
 20
199.5771
 30
0.0
 10
-849.0509000000001
 20
199.5771
 30
0.0
 10
-849.0509000000001
 20
199.5771
 30
0.0
 10
-849.0509000000001
 20
199.5771
 30
0.0
 10
-848.0539
 20
199.5771
 30
0.0
 10
-848.0539
 20
199.5771
 30
0.0
 10
-848.0539
 20
199.5771
 30
0.0
 10
-848.0539
 20
199.5771
 30
0.0
 10
-848.0539
 20
198.6542
 30
0.0
 10
-848.0539
 20
198.6542
 30
0.0
 10
-848.0539
 20
198.6542
 30
0.0
 10
-847.8465
 20
198.9759
 30
0.0
 10
-847.5713000000001
 20
199.2363
 30
0.0
 10
-847.2284000000001
 20
199.431
 30
0.0
 10
-847.2284000000001
 20
199.431
 30
0.0
 10
-846.8855000000001
 20
199.6279
 30
0.0
 10
-846.494
 20
199.7273
 30
0.0
 10
-846.0558000000001
 20
199.7273
 30
0.0
 10
-846.0558000000001
 20
199.7273
 30
0.0
 10
-845.5690000000001
 20
199.7273
 30
0.0
 10
-845.1689
 20
199.6257
 30
0.0
 10
-844.8578
 20
199.4225
 30
0.0
 10
-844.8578
 20
199.4225
 30
0.0
 10
-844.5445000000001
 20
199.2193
 30
0.0
 10
-844.3244000000001
 20
198.9378
 30
0.0
 10
-844.1974
 20
198.5738
 30
0.0
 10
-844.1974
 20
198.5738
 30
0.0
 10
-843.6746000000001
 20
199.3421
 30
0.0
 10
-842.9972
 20
199.7273
 30
0.0
 10
-842.1633000000001
 20
199.7273
 30
0.0
 10
-842.1633000000001
 20
199.7273
 30
0.0
 10
-841.5092000000001
 20
199.7273
 30
0.0
 10
-841.0076
 20
199.5453
 30
0.0
 10
-840.6562
 20
199.1834
 30
0.0
 10
-840.6562
 20
199.1834
 30
0.0
 10
-840.3048
 20
198.8214
 30
0.0
 10
-840.1291
 20
198.2647
 30
0.0
 10
-840.1291
 20
197.5133
 30
0.0
 10
-840.1291
 20
197.5133
 30
0.0
 10
-840.1291
 20
197.5133
 30
0.0
 10
-840.1291
 20
192.9921
 30
0.0
 10
-840.1291
 20
192.9921
 30
0.0
 10
-840.1291
 20
192.9921
 30
0.0
 10
-840.1291
 20
192.9921
 30
0.0
 10
-841.2383000000001
 20
192.9921
 30
0.0
 10
-841.2383000000001
 20
192.9921
 30
0.0
 10
-841.2383000000001
 20
192.9921
 30
0.0
 10
-841.2383000000001
 20
192.9921
 30
0.0
 10
-841.2383000000001
 20
197.1408
 30
0.0
 10
-841.2383000000001
 20
197.1408
 30
0.0
 10
-841.2383000000001
 20
197.1408
 30
0.0
 10
-841.2383000000001
 20
197.5874
 30
0.0
 10
-841.2743
 20
197.9091
 30
0.0
 10
-841.3462000000001
 20
198.106
 30
0.0
 10
-841.3462000000001
 20
198.106
 30
0.0
 10
-841.4203
 20
198.3007
 30
0.0
 10
-841.5515
 20
198.4595
 30
0.0
 10
-841.7399
 20
198.5801
 30
0.0
 10
-841.7399
 20
198.5801
 30
0.0
 10
-841.9304000000001
 20
198.6986
 30
0.0
 10
-842.1548
 20
198.76
 30
0.0
 10
-842.4109000000001
 20
198.76
 30
0.0
 10
-842.4109000000001
 20
198.76
 30
0.0
 10
-842.8745
 20
198.76
 30
0.0
 10
-843.2576
 20
198.6055
 30
0.0
 10
-843.5645000000001
 20
198.2965
 30
0.0
 10
-843.5645000000001
 20
198.2965
 30
0.0
 10
-843.8693000000001
 20
197.9896
 30
0.0
 10
-844.0238000000001
 20
197.4964
 30
0.0
 10
-844.0238000000001
 20
196.819
 30
0.0
 10
-844.0238000000001
 20
196.819
 30
0.0
 10
-844.0238000000001
 20
196.819
 30
0.0
 10
-844.0238000000001
 20
192.9921
 30
0.0
 10
-844.0238000000001
 20
192.9921
 30
0.0
 10
-844.0238000000001
 20
192.9921
 30
0.0
 10
-844.0238000000001
 20
192.9921
 30
0.0
 10
-845.1393000000001
 20
192.9921
 30
0.0
 10
-845.1393000000001
 20
192.9921
 30
0.0
 10
-845.1393000000001
 20
192.9921
 30
0.0
 10
-845.1393000000001
 20
192.9921
 30
0.0
 10
-845.1393000000001
 20
197.2699
 30
0.0
 10
-845.1393000000001
 20
197.2699
 30
0.0
 10
-845.1393000000001
 20
197.2699
 30
0.0
 10
-845.1393000000001
 20
197.7673
 30
0.0
 10
-845.2303000000001
 20
198.1398
 30
0.0
 10
-845.4123000000001
 20
198.3875
 30
0.0
 10
-845.4123000000001
 20
198.3875
 30
0.0
 10
-845.5944000000001
 20
198.6351
 30
0.0
 10
-845.8907
 20
198.76
 30
0.0
 10
-846.3056
 20
198.76
 30
0.0
 10
-846.3056
 20
198.76
 30
0.0
 10
-846.6188000000001
 20
198.76
 30
0.0
 10
-846.9088
 20
198.6775
 30
0.0
 10
-847.1755000000001
 20
198.5103
 30
0.0
 10
-847.1755000000001
 20
198.5103
 30
0.0
 10
-847.4422000000001
 20
198.3452
 30
0.0
 10
-847.6370000000001
 20
198.1039
 30
0.0
 10
-847.7555000000001
 20
197.7864
 30
0.0
 10
-847.7555000000001
 20
197.7864
 30
0.0
 10
-847.8761000000001
 20
197.4667
 30
0.0
 10
-847.9354000000001
 20
197.0074
 30
0.0
 10
-847.9354000000001
 20
196.4084
 30
0.0
 10
-847.9354000000001
 20
196.4084
 30
0.0
 10
-847.9354000000001
 20
196.4084
 30
0.0
 10
-847.9354000000001
 20
192.9921
 30
0.0
 10
-847.9354000000001
 20
192.9921
 30
0.0
 10
-847.9354000000001
 20
192.9921
 30
0.0
 10
-847.9354000000001
 20
192.9921
 30
0.0
 10
-849.0509000000001
 20
192.9921
 30
0.0
 10
-849.0509000000001
 20
192.9921
 30
0.0
  0
SPLINE
  5
37
330
1F
100
AcDbEntity
  8
Layer 1
 62
   250
100
AcDbSpline
210
0.0
220
0.0
230
1.0
 70
    11
 71
     3
 72
    56
 73
    52
 74
     0
 42
0.0000000001
 43
0.0000000001
 40
0.0
 40
0.0
 40
0.0
 40
0.0
 40
0.0769230769230769
 40
0.0769230769230769
 40
0.0769230769230769
 40
0.0769230769230769
 40
0.1538461538461539
 40
0.1538461538461539
 40
0.1538461538461539
 40
0.1538461538461539
 40
0.2307692307692308
 40
0.2307692307692308
 40
0.2307692307692308
 40
0.2307692307692308
 40
0.3076923076923077
 40
0.3076923076923077
 40
0.3076923076923077
 40
0.3076923076923077
 40
0.3846153846153846
 40
0.3846153846153846
 40
0.3846153846153846
 40
0.3846153846153846
 40
0.4615384615384616
 40
0.4615384615384616
 40
0.4615384615384616
 40
0.4615384615384616
 40
0.5384615384615386
 40
0.5384615384615386
 40
0.5384615384615386
 40
0.5384615384615386
 40
0.6153846153846154
 40
0.6153846153846154
 40
0.6153846153846154
 40
0.6153846153846154
 40
0.6923076923076923
 40
0.6923076923076923
 40
0.6923076923076923
 40
0.6923076923076923
 40
0.7692307692307692
 40
0.7692307692307692
 40
0.7692307692307692
 40
0.7692307692307692
 40
0.846153846153846
 40
0.846153846153846
 40
0.846153846153846
 40
0.846153846153846
 40
0.9230769230769229
 40
0.9230769230769229
 40
0.9230769230769229
 40
0.9230769230769229
 40
1.0
 40
1.0
 40
1.0
 40
1.0
 10
-830.7459
 20
190.469
 30
0.0
 10
-830.7459
 20
190.469
 30
0.0
 10
-830.7459
 20
193.6927
 30
0.0
 10
-830.7459
 20
193.6927
 30
0.0
 10
-830.7459
 20
193.6927
 30
0.0
 10
-830.9195000000001
 20
193.4493
 30
0.0
 10
-831.1629
 20
193.2461
 30
0.0
 10
-831.4741
 20
193.0852
 30
0.0
 10
-831.4741
 20
193.0852
 30
0.0
 10
-831.7873000000001
 20
192.9244
 30
0.0
 10
-832.1197000000001
 20
192.8439
 30
0.0
 10
-832.471
 20
192.8439
 30
0.0
 10
-832.471
 20
192.8439
 30
0.0
 10
-833.2521
 20
192.8439
 30
0.0
 10
-833.9252
 20
193.1551
 30
0.0
 10
-834.4882
 20
193.7795
 30
0.0
 10
-834.4882
 20
193.7795
 30
0.0
 10
-835.0534
 20
194.4039
 30
0.0
 10
-835.3349000000001
 20
195.2591
 30
0.0
 10
-835.3349000000001
 20
196.347
 30
0.0
 10
-835.3349000000001
 20
196.347
 30
0.0
 10
-835.3349000000001
 20
197.0074
 30
0.0
 10
-835.2206
 20
197.6022
 30
0.0
 10
-834.9899
 20
198.1271
 30
0.0
 10
-834.9899
 20
198.1271
 30
0.0
 10
-834.7613
 20
198.6521
 30
0.0
 10
-834.4289
 20
199.05
 30
0.0
 10
-833.9929000000001
 20
199.3209
 30
0.0
 10
-833.9929000000001
 20
199.3209
 30
0.0
 10
-833.5569
 20
199.5919
 30
0.0
 10
-833.0785000000001
 20
199.7273
 30
0.0
 10
-832.5578
 20
199.7273
 30
0.0
 10
-832.5578
 20
199.7273
 30
0.0
 10
-831.7429000000001
 20
199.7273
 30
0.0
 10
-831.1015
 20
199.3844
 30
0.0
 10
-830.6338000000001
 20
198.6965
 30
0.0
 10
-830.6338000000001
 20
198.6965
 30
0.0
 10
-830.6338000000001
 20
198.6965
 30
0.0
 10
-830.6338000000001
 20
199.5771
 30
0.0
 10
-830.6338000000001
 20
199.5771
 30
0.0
 10
-830.6338000000001
 20
199.5771
 30
0.0
 10
-830.6338000000001
 20
199.5771
 30
0.0
 10
-829.6305
 20
199.5771
 30
0.0
 10
-829.6305
 20
199.5771
 30
0.0
 10
-829.6305
 20
199.5771
 30
0.0
 10
-829.6305
 20
199.5771
 30
0.0
 10
-829.6305
 20
190.469
 30
0.0
 10
-829.6305
 20
190.469
 30
0.0
 10
-829.6305
 20
190.469
 30
0.0
 10
-829.6305
 20
190.469
 30
0.0
 10
-830.7459
 20
190.469
 30
0.0
 10
-830.7459
 20
190.469
 30
0.0
  0
SPLINE
  5
38
330
1F
100
AcDbEntity
  8
Layer 1
 62
   250
100
AcDbSpline
210
0.0
220
0.0
230
1.0
 70
    11
 71
     3
 72
    36
 73
    32
 74
     0
 42
0.0000000001
 43
0.0000000001
 40
0.0
 40
0.0
 40
0.0
 40
0.0
 40
0.125
 40
0.125
 40
0.125
 40
0.125
 40
0.25
 40
0.25
 40
0.25
 40
0.25
 40
0.375
 40
0.375
 40
0.375
 40
0.375
 40
0.5
 40
0.5
 40
0.5
 40
0.5
 40
0.625
 40
0.625
 40
0.625
 40
0.625
 40
0.75
 40
0.75
 40
0.75
 40
0.75
 40
0.875
 40
0.875
 40
0.875
 40
0.875
 40
1.0
 40
1.0
 40
1.0
 40
1.0
 10
-834.1876000000001
 20
196.3026
 30
0.0
 10
-834.1876000000001
 20
195.4559
 30
0.0
 10
-834.0098
 20
194.8209
 30
0.0
 10
-833.6542000000001
 20
194.3976
 30
0.0
 10
-833.6542000000001
 20
194.3976
 30
0.0
 10
-833.2986000000001
 20
193.9721
 30
0.0
 10
-832.8732
 20
193.7605
 30
0.0
 10
-832.3779000000001
 20
193.7605
 30
0.0
 10
-832.3779000000001
 20
193.7605
 30
0.0
 10
-831.9016
 20
193.7605
 30
0.0
 10
-831.4931
 20
193.9615
 30
0.0
 10
-831.1502
 20
194.3658
 30
0.0
 10
-831.1502
 20
194.3658
 30
0.0
 10
-830.8052
 20
194.768
 30
0.0
 10
-830.6338000000001
 20
195.3818
 30
0.0
 10
-830.6338000000001
 20
196.2052
 30
0.0
 10
-830.6338000000001
 20
196.2052
 30
0.0
 10
-830.6338000000001
 20
197.0815
 30
0.0
 10
-830.8158000000001
 20
197.7398
 30
0.0
 10
-831.1777000000001
 20
198.1822
 30
0.0
 10
-831.1777000000001
 20
198.1822
 30
0.0
 10
-831.5397
 20
198.6246
 30
0.0
 10
-831.9630000000001
 20
198.8468
 30
0.0
 10
-832.452
 20
198.8468
 30
0.0
 10
-832.452
 20
198.8468
 30
0.0
 10
-832.9346000000001
 20
198.8468
 30
0.0
 10
-833.3452000000001
 20
198.6394
 30
0.0
 10
-833.6818000000001
 20
198.2287
 30
0.0
 10
-833.6818000000001
 20
198.2287
 30
0.0
 10
-834.0183000000001
 20
197.8181
 30
0.0
 10
-834.1876000000001
 20
197.1768
 30
0.0
 10
-834.1876000000001
 20
196.3026
 30
0.0
  0
SPLINE
  5
39
330
1F
100
AcDbEntity
  8
Layer 1
 62
   250
100
AcDbSpline
210
0.0
220
0.0
230
1.0
 70
    11
 71
     3
 72
    80
 73
    76
 74
     0
 42
0.0000000001
 43
0.0000000001
 40
0.0
 40
0.0
 40
0.0
 40
0.0
 40
0.0526315789473684
 40
0.0526315789473684
 40
0.0526315789473684
 40
0.0526315789473684
 40
0.1052631578947368
 40
0.1052631578947368
 40
0.1052631578947368
 40
0.1052631578947368
 40
0.1578947368421053
 40
0.1578947368421053
 40
0.1578947368421053
 40
0.1578947368421053
 40
0.2105263157894737
 40
0.2105263157894737
 40
0.2105263157894737
 40
0.2105263157894737
 40
0.2631578947368421
 40
0.2631578947368421
 40
0.2631578947368421
 40
0.2631578947368421
 40
0.3157894736842105
 40
0.3157894736842105
 40
0.3157894736842105
 40
0.3157894736842105
 40
0.3684210526315789
 40
0.3684210526315789
 40
0.3684210526315789
 40
0.3684210526315789
 40
0.4210526315789474
 40
0.4210526315789474
 40
0.4210526315789474
 40
0.4210526315789474
 40
0.4736842105263158
 40
0.4736842105263158
 40
0.4736842105263158
 40
0.4736842105263158
 40
0.5263157894736842
 40
0.5263157894736842
 40
0.5263157894736842
 40
0.5263157894736842
 40
0.5789473684210527
 40
0.5789473684210527
 40
0.5789473684210527
 40
0.5789473684210527
 40
0.631578947368421
 40
0.631578947368421
 40
0.631578947368421
 40
0.631578947368421
 40
0.6842105263157894
 40
0.6842105263157894
 40
0.6842105263157894
 40
0.6842105263157894
 40
0.7368421052631577
 40
0.7368421052631577
 40
0.7368421052631577
 40
0.7368421052631577
 40
0.7894736842105261
 40
0.7894736842105261
 40
0.7894736842105261
 40
0.7894736842105261
 40
0.8421052631578945
 40
0.8421052631578945
 40
0.8421052631578945
 40
0.8421052631578945
 40
0.8947368421052628
 40
0.8947368421052628
 40
0.8947368421052628
 40
0.8947368421052628
 40
0.9473684210526312
 40
0.9473684210526312
 40
0.9473684210526312
 40
0.9473684210526312
 40
1.0
 40
1.0
 40
1.0
 40
1.0
 10
-823.5641000000001
 20
192.9921
 30
0.0
 10
-823.5641000000001
 20
192.9921
 30
0.0
 10
-823.5641000000001
 20
193.9594
 30
0.0
 10
-823.5641000000001
 20
193.9594
 30
0.0
 10
-823.5641000000001
 20
193.9594
 30
0.0
 10
-824.0785000000001
 20
193.2144
 30
0.0
 10
-824.7748
 20
192.8439
 30
0.0
 10
-825.6554
 20
192.8439
 30
0.0
 10
-825.6554
 20
192.8439
 30
0.0
 10
-826.0427000000001
 20
192.8439
 30
0.0
 10
-826.4068000000001
 20
192.918
 30
0.0
 10
-826.7433000000001
 20
193.0662
 30
0.0
 10
-826.7433000000001
 20
193.0662
 30
0.0
 10
-827.0799000000001
 20
193.2144
 30
0.0
 10
-827.3297
 20
193.4027
 30
0.0
 10
-827.4926
 20
193.6271
 30
0.0
 10
-827.4926
 20
193.6271
 30
0.0
 10
-827.6577000000001
 20
193.8536
 30
0.0
 10
-827.7720000000001
 20
194.1288
 30
0.0
 10
-827.8377
 20
194.4547
 30
0.0
 10
-827.8377
 20
194.4547
 30
0.0
 10
-827.8821
 20
194.6749
 30
0.0
 10
-827.9054
 20
195.022
 30
0.0
 10
-827.9054
 20
195.4982
 30
0.0
 10
-827.9054
 20
195.4982
 30
0.0
 10
-827.9054
 20
195.4982
 30
0.0
 10
-827.9054
 20
199.5771
 30
0.0
 10
-827.9054
 20
199.5771
 30
0.0
 10
-827.9054
 20
199.5771
 30
0.0
 10
-827.9054
 20
199.5771
 30
0.0
 10
-826.7899
 20
199.5771
 30
0.0
 10
-826.7899
 20
199.5771
 30
0.0
 10
-826.7899
 20
199.5771
 30
0.0
 10
-826.7899
 20
199.5771
 30
0.0
 10
-826.7899
 20
195.9258
 30
0.0
 10
-826.7899
 20
195.9258
 30
0.0
 10
-826.7899
 20
195.9258
 30
0.0
 10
-826.7899
 20
195.3416
 30
0.0
 10
-826.7666
 20
194.95
 30
0.0
 10
-826.7222
 20
194.7468
 30
0.0
 10
-826.7222
 20
194.7468
 30
0.0
 10
-826.6502
 20
194.4526
 30
0.0
 10
-826.5020000000001
 20
194.224
 30
0.0
 10
-826.2756000000001
 20
194.0547
 30
0.0
 10
-826.2756000000001
 20
194.0547
 30
0.0
 10
-826.047
 20
193.8875
 30
0.0
 10
-825.7654
 20
193.8049
 30
0.0
 10
-825.431
 20
193.8049
 30
0.0
 10
-825.431
 20
193.8049
 30
0.0
 10
-825.0966000000001
 20
193.8049
 30
0.0
 10
-824.7833000000001
 20
193.8896
 30
0.0
 10
-824.4891
 20
194.061
 30
0.0
 10
-824.4891
 20
194.061
 30
0.0
 10
-824.1949000000001
 20
194.2325
 30
0.0
 10
-823.9874000000001
 20
194.4674
 30
0.0
 10
-823.8668
 20
194.7616
 30
0.0
 10
-823.8668
 20
194.7616
 30
0.0
 10
-823.744
 20
195.058
 30
0.0
 10
-823.6826000000001
 20
195.4877
 30
0.0
 10
-823.6826000000001
 20
196.0486
 30
0.0
 10
-823.6826000000001
 20
196.0486
 30
0.0
 10
-823.6826000000001
 20
196.0486
 30
0.0
 10
-823.6826000000001
 20
199.5771
 30
0.0
 10
-823.6826000000001
 20
199.5771
 30
0.0
 10
-823.6826000000001
 20
199.5771
 30
0.0
 10
-823.6826000000001
 20
199.5771
 30
0.0
 10
-822.5672000000001
 20
199.5771
 30
0.0
 10
-822.5672000000001
 20
199.5771
 30
0.0
 10
-822.5672000000001
 20
199.5771
 30
0.0
 10
-822.5672000000001
 20
199.5771
 30
0.0
 10
-822.5672000000001
 20
192.9921
 30
0.0
 10
-822.5672000000001
 20
192.9921
 30
0.0
 10
-822.5672000000001
 20
192.9921
 30
0.0
 10
-822.5672000000001
 20
192.9921
 30
0.0
 10
-823.5641000000001
 20
192.9921
 30
0.0
 10
-823.5641000000001
 20
192.9921
 30
0.0
  0
SPLINE
  5
3A
330
1F
100
AcDbEntity
  8
Layer 1
 62
   250
100
AcDbSpline
210
0.0
220
0.0
230
1.0
 70
    11
 71
     3
 72
    20
 73
    16
 74
     0
 42
0.0000000001
 43
0.0000000001
 40
0.0
 40
0.0
 40
0.0
 40
0.0
 40
0.25
 40
0.25
 40
0.25
 40
0.25
 40
0.5
 40
0.5
 40
0.5
 40
0.5
 40
0.75
 40
0.75
 40
0.75
 40
0.75
 40
1.0
 40
1.0
 40
1.0
 40
1.0
 10
-820.8125
 20
200.7984
 30
0.0
 10
-820.8125
 20
200.7984
 30
0.0
 10
-820.8125
 20
202.0832
 30
0.0
 10
-820.8125
 20
202.0832
 30
0.0
 10
-820.8125
 20
202.0832
 30
0.0
 10
-820.8125
 20
202.0832
 30
0.0
 10
-819.6949000000001
 20
202.0832
 30
0.0
 10
-819.6949000000001
 20
202.0832
 30
0.0
 10
-819.6949000000001
 20
202.0832
 30
0.0
 10
-819.6949000000001
 20
202.0832
 30
0.0
 10
-819.6949000000001
 20
200.7984
 30
0.0
 10
-819.6949000000001
 20
200.7984
 30
0.0
 10
-819.6949000000001
 20
200.7984
 30
0.0
 10
-819.6949000000001
 20
200.7984
 30
0.0
 10
-820.8125
 20
200.7984
 30
0.0
 10
-820.8125
 20
200.7984
 30
0.0
  0
SPLINE
  5
3B
330
1F
100
AcDbEntity
  8
Layer 1
 62
   250
100
AcDbSpline
210
0.0
220
0.0
230
1.0
 70
    11
 71
     3
 72
    20
 73
    16
 74
     0
 42
0.0000000001
 43
0.0000000001
 40
0.0
 40
0.0
 40
0.0
 40
0.0
 40
0.25
 40
0.25
 40
0.25
 40
0.25
 40
0.5
 40
0.5
 40
0.5
 40
0.5
 40
0.75
 40
0.75
 40
0.75
 40
0.75
 40
1.0
 40
1.0
 40
1.0
 40
1.0
 10
-820.8125
 20
192.9921
 30
0.0
 10
-820.8125
 20
192.9921
 30
0.0
 10
-820.8125
 20
199.5771
 30
0.0
 10
-820.8125
 20
199.5771
 30
0.0
 10
-820.8125
 20
199.5771
 30
0.0
 10
-820.8125
 20
199.5771
 30
0.0
 10
-819.6949000000001
 20
199.5771
 30
0.0
 10
-819.6949000000001
 20
199.5771
 30
0.0
 10
-819.6949000000001
 20
199.5771
 30
0.0
 10
-819.6949000000001
 20
199.5771
 30
0.0
 10
-819.6949000000001
 20
192.9921
 30
0.0
 10
-819.6949000000001
 20
192.9921
 30
0.0
 10
-819.6949000000001
 20
192.9921
 30
0.0
 10
-819.6949000000001
 20
192.9921
 30
0.0
 10
-820.8125
 20
192.9921
 30
0.0
 10
-820.8125
 20
192.9921
 30
0.0
  0
SPLINE
  5
3C
330
1F
100
AcDbEntity
  8
Layer 1
 62
   250
100
AcDbSpline
210
0.0
220
0.0
230
1.0
 70
    11
 71
     3
 72
    56
 73
    52
 74
     0
 42
0.0000000001
 43
0.0000000001
 40
0.0
 40
0.0
 40
0.0
 40
0.0
 40
0.0769230769230769
 40
0.0769230769230769
 40
0.0769230769230769
 40
0.0769230769230769
 40
0.1538461538461539
 40
0.1538461538461539
 40
0.1538461538461539
 40
0.1538461538461539
 40
0.2307692307692308
 40
0.2307692307692308
 40
0.2307692307692308
 40
0.2307692307692308
 40
0.3076923076923077
 40
0.3076923076923077
 40
0.3076923076923077
 40
0.3076923076923077
 40
0.3846153846153846
 40
0.3846153846153846
 40
0.3846153846153846
 40
0.3846153846153846
 40
0.4615384615384616
 40
0.4615384615384616
 40
0.4615384615384616
 40
0.4615384615384616
 40
0.5384615384615386
 40
0.5384615384615386
 40
0.5384615384615386
 40
0.5384615384615386
 40
0.6153846153846154
 40
0.6153846153846154
 40
0.6153846153846154
 40
0.6153846153846154
 40
0.6923076923076923
 40
0.6923076923076923
 40
0.6923076923076923
 40
0.6923076923076923
 40
0.7692307692307692
 40
0.7692307692307692
 40
0.7692307692307692
 40
0.7692307692307692
 40
0.846153846153846
 40
0.846153846153846
 40
0.846153846153846
 40
0.846153846153846
 40
0.9230769230769229
 40
0.9230769230769229
 40
0.9230769230769229
 40
0.9230769230769229
 40
1.0
 40
1.0
 40
1.0
 40
1.0
 10
-818.0079000000001
 20
192.9921
 30
0.0
 10
-818.0079000000001
 20
192.9921
 30
0.0
 10
-818.0079000000001
 20
199.5771
 30
0.0
 10
-818.0079000000001
 20
199.5771
 30
0.0
 10
-818.0079000000001
 20
199.5771
 30
0.0
 10
-818.0079000000001
 20
199.5771
 30
0.0
 10
-817.0046000000001
 20
199.5771
 30
0.0
 10
-817.0046000000001
 20
199.5771
 30
0.0
 10
-817.0046000000001
 20
199.5771
 30
0.0
 10
-817.0046000000001
 20
199.5771
 30
0.0
 10
-817.0046000000001
 20
198.5801
 30
0.0
 10
-817.0046000000001
 20
198.5801
 30
0.0
 10
-817.0046000000001
 20
198.5801
 30
0.0
 10
-816.7485
 20
199.0458
 30
0.0
 10
-816.5114000000001
 20
199.3548
 30
0.0
 10
-816.2934
 20
199.503
 30
0.0
 10
-816.2934
 20
199.503
 30
0.0
 10
-816.0775
 20
199.6511
 30
0.0
 10
-815.8383
 20
199.7273
 30
0.0
 10
-815.5780000000001
 20
199.7273
 30
0.0
 10
-815.5780000000001
 20
199.7273
 30
0.0
 10
-815.2012000000001
 20
199.7273
 30
0.0
 10
-814.8202
 20
199.6067
 30
0.0
 10
-814.4307
 20
199.3675
 30
0.0
 10
-814.4307
 20
199.3675
 30
0.0
 10
-814.4307
 20
199.3675
 30
0.0
 10
-814.816
 20
198.3303
 30
0.0
 10
-814.816
 20
198.3303
 30
0.0
 10
-814.816
 20
198.3303
 30
0.0
 10
-815.0869
 20
198.4933
 30
0.0
 10
-815.3599
 20
198.5738
 30
0.0
 10
-815.633
 20
198.5738
 30
0.0
 10
-815.633
 20
198.5738
 30
0.0
 10
-815.8785
 20
198.5738
 30
0.0
 10
-816.0965
 20
198.4997
 30
0.0
 10
-816.2913000000001
 20
198.3536
 30
0.0
 10
-816.2913000000001
 20
198.3536
 30
0.0
 10
-816.486
 20
198.2055
 30
0.0
 10
-816.6236
 20
198.0023
 30
0.0
 10
-816.7061
 20
197.7419
 30
0.0
 10
-816.7061
 20
197.7419
 30
0.0
 10
-816.831
 20
197.3461
 30
0.0
 10
-816.8924000000001
 20
196.9122
 30
0.0
 10
-816.8924000000001
 20
196.4402
 30
0.0
 10
-816.8924000000001
 20
196.4402
 30
0.0
 10
-816.8924000000001
 20
196.4402
 30
0.0
 10
-816.8924000000001
 20
192.9921
 30
0.0
 10
-816.8924000000001
 20
192.9921
 30
0.0
 10
-816.8924000000001
 20
192.9921
 30
0.0
 10
-816.8924000000001
 20
192.9921
 30
0.0
 10
-818.0079000000001
 20
192.9921
 30
0.0
 10
-818.0079000000001
 20
192.9921
 30
0.0
  0
SPLINE
  5
3D
330
1F
100
AcDbEntity
  8
Layer 1
 62
   250
100
AcDbSpline
210
0.0
220
0.0
230
1.0
 70
    11
 71
     3
 72
    52
 73
    48
 74
     0
 42
0.0000000001
 43
0.0000000001
 40
0.0
 40
0.0
 40
0.0
 40
0.0
 40
0.0833333333333333
 40
0.0833333333333333
 40
0.0833333333333333
 40
0.0833333333333333
 40
0.1666666666666667
 40
0.1666666666666667
 40
0.1666666666666667
 40
0.1666666666666667
 40
0.25
 40
0.25
 40
0.25
 40
0.25
 40
0.3333333333333333
 40
0.3333333333333333
 40
0.3333333333333333
 40
0.3333333333333333
 40
0.4166666666666666
 40
0.4166666666666666
 40
0.4166666666666666
 40
0.4166666666666666
 40
0.4999999999999999
 40
0.4999999999999999
 40
0.4999999999999999
 40
0.4999999999999999
 40
0.5833333333333333
 40
0.5833333333333333
 40
0.5833333333333333
 40
0.5833333333333333
 40
0.6666666666666666
 40
0.6666666666666666
 40
0.6666666666666666
 40
0.6666666666666666
 40
0.75
 40
0.75
 40
0.75
 40
0.75
 40
0.8333333333333334
 40
0.8333333333333334
 40
0.8333333333333334
 40
0.8333333333333334
 40
0.9166666666666667
 40
0.9166666666666667
 40
0.9166666666666667
 40
0.9166666666666667
 40
1.0
 40
1.0
 40
1.0
 40
1.0
 10
-813.7619000000001
 20
192.9921
 30
0.0
 10
-813.7619000000001
 20
192.9921
 30
0.0
 10
-813.7619000000001
 20
202.0832
 30
0.0
 10
-813.7619000000001
 20
202.0832
 30
0.0
 10
-813.7619000000001
 20
202.0832
 30
0.0
 10
-813.7619000000001
 20
202.0832
 30
0.0
 10
-812.6443
 20
202.0832
 30
0.0
 10
-812.6443
 20
202.0832
 30
0.0
 10
-812.6443
 20
202.0832
 30
0.0
 10
-812.6443
 20
202.0832
 30
0.0
 10
-812.6443
 20
196.8995
 30
0.0
 10
-812.6443
 20
196.8995
 30
0.0
 10
-812.6443
 20
196.8995
 30
0.0
 10
-812.6443
 20
196.8995
 30
0.0
 10
-810.0027
 20
199.5771
 30
0.0
 10
-810.0027
 20
199.5771
 30
0.0
 10
-810.0027
 20
199.5771
 30
0.0
 10
-810.0027
 20
199.5771
 30
0.0
 10
-808.5591000000001
 20
199.5771
 30
0.0
 10
-808.5591000000001
 20
199.5771
 30
0.0
 10
-808.5591000000001
 20
199.5771
 30
0.0
 10
-808.5591000000001
 20
199.5771
 30
0.0
 10
-811.0758000000001
 20
197.1344
 30
0.0
 10
-811.0758000000001
 20
197.1344
 30
0.0
 10
-811.0758000000001
 20
197.1344
 30
0.0
 10
-811.0758000000001
 20
197.1344
 30
0.0
 10
-808.303
 20
192.9921
 30
0.0
 10
-808.303
 20
192.9921
 30
0.0
 10
-808.303
 20
192.9921
 30
0.0
 10
-808.303
 20
192.9921
 30
0.0
 10
-809.6809000000001
 20
192.9921
 30
0.0
 10
-809.6809000000001
 20
192.9921
 30
0.0
 10
-809.6809000000001
 20
192.9921
 30
0.0
 10
-809.6809000000001
 20
192.9921
 30
0.0
 10
-811.8569
 20
196.3597
 30
0.0
 10
-811.8569
 20
196.3597
 30
0.0
 10
-811.8569
 20
196.3597
 30
0.0
 10
-811.8569
 20
196.3597
 30
0.0
 10
-812.6443
 20
195.602
 30
0.0
 10
-812.6443
 20
195.602
 30
0.0
 10
-812.6443
 20
195.602
 30
0.0
 10
-812.6443
 20
195.602
 30
0.0
 10
-812.6443
 20
192.9921
 30
0.0
 10
-812.6443
 20
192.9921
 30
0.0
 10
-812.6443
 20
192.9921
 30
0.0
 10
-812.6443
 20
192.9921
 30
0.0
 10
-813.7619000000001
 20
192.9921
 30
0.0
 10
-813.7619000000001
 20
192.9921
 30
0.0
  0
SPLINE
  5
3E
330
1F
100
AcDbEntity
  8
Layer 1
 62
   250
100
AcDbSpline
210
0.0
220
0.0
230
1.0
 70
    11
 71
     3
 72
    84
 73
    80
 74
     0
 42
0.0000000001
 43
0.0000000001
 40
0.0
 40
0.0
 40
0.0
 40
0.0
 40
0.05
 40
0.05
 40
0.05
 40
0.05
 40
0.1
 40
0.1
 40
0.1
 40
0.1
 40
0.15
 40
0.15
 40
0.15
 40
0.15
 40
0.2
 40
0.2
 40
0.2
 40
0.2
 40
0.25
 40
0.25
 40
0.25
 40
0.25
 40
0.3
 40
0.3
 40
0.3
 40
0.3
 40
0.35
 40
0.35
 40
0.35
 40
0.35
 40
0.4
 40
0.4
 40
0.4
 40
0.4
 40
0.45
 40
0.45
 40
0.45
 40
0.45
 40
0.4999999999999999
 40
0.4999999999999999
 40
0.4999999999999999
 40
0.4999999999999999
 40
0.5499999999999999
 40
0.5499999999999999
 40
0.5499999999999999
 40
0.5499999999999999
 40
0.6
 40
0.6
 40
0.6
 40
0.6
 40
0.65
 40
0.65
 40
0.65
 40
0.65
 40
0.7000000000000001
 40
0.7000000000000001
 40
0.7000000000000001
 40
0.7000000000000001
 40
0.7500000000000001
 40
0.7500000000000001
 40
0.7500000000000001
 40
0.7500000000000001
 40
0.8000000000000002
 40
0.8000000000000002
 40
0.8000000000000002
 40
0.8000000000000002
 40
0.8500000000000002
 40
0.8500000000000002
 40
0.8500000000000002
 40
0.8500000000000002
 40
0.9000000000000002
 40
0.9000000000000002
 40
0.9000000000000002
 40
0.9000000000000002
 40
0.9500000000000003
 40
0.9500000000000003
 40
0.9500000000000003
 40
0.9500000000000003
 40
1.0
 40
1.0
 40
1.0
 40
1.0
 10
-801.4513000000001
 20
193.9912
 30
0.0
 10
-801.4513000000001
 20
193.9912
 30
0.0
 10
-801.2904000000001
 20
193.0048
 30
0.0
 10
-801.2904000000001
 20
193.0048
 30
0.0
 10
-801.2904000000001
 20
193.0048
 30
0.0
 10
-801.6037
 20
192.9392
 30
0.0
 10
-801.8852000000001
 20
192.9053
 30
0.0
 10
-802.1329000000001
 20
192.9053
 30
0.0
 10
-802.1329000000001
 20
192.9053
 30
0.0
 10
-802.5393
 20
192.9053
 30
0.0
 10
-802.8525000000001
 20
192.9688
 30
0.0
 10
-803.0769
 20
193.0979
 30
0.0
 10
-803.0769
 20
193.0979
 30
0.0
 10
-803.2992
 20
193.2249
 30
0.0
 10
-803.4558000000001
 20
193.3943
 30
0.0
 10
-803.5468000000001
 20
193.6038
 30
0.0
 10
-803.5468000000001
 20
193.6038
 30
0.0
 10
-803.6378000000001
 20
193.8113
 30
0.0
 10
-803.6844
 20
194.2515
 30
0.0
 10
-803.6844
 20
194.9204
 30
0.0
 10
-803.6844
 20
194.9204
 30
0.0
 10
-803.6844
 20
194.9204
 30
0.0
 10
-803.6844
 20
198.7092
 30
0.0
 10
-803.6844
 20
198.7092
 30
0.0
 10
-803.6844
 20
198.7092
 30
0.0
 10
-803.6844
 20
198.7092
 30
0.0
 10
-804.5035
 20
198.7092
 30
0.0
 10
-804.5035
 20
198.7092
 30
0.0
 10
-804.5035
 20
198.7092
 30
0.0
 10
-804.5035
 20
198.7092
 30
0.0
 10
-804.5035
 20
199.5771
 30
0.0
 10
-804.5035
 20
199.5771
 30
0.0
 10
-804.5035
 20
199.5771
 30
0.0
 10
-804.5035
 20
199.5771
 30
0.0
 10
-803.6844
 20
199.5771
 30
0.0
 10
-803.6844
 20
199.5771
 30
0.0
 10
-803.6844
 20
199.5771
 30
0.0
 10
-803.6844
 20
199.5771
 30
0.0
 10
-803.6844
 20
201.209
 30
0.0
 10
-803.6844
 20
201.209
 30
0.0
 10
-803.6844
 20
201.209
 30
0.0
 10
-803.6844
 20
201.209
 30
0.0
 10
-802.5731000000001
 20
201.8779
 30
0.0
 10
-802.5731000000001
 20
201.8779
 30
0.0
 10
-802.5731000000001
 20
201.8779
 30
0.0
 10
-802.5731000000001
 20
201.8779
 30
0.0
 10
-802.5731000000001
 20
199.5771
 30
0.0
 10
-802.5731000000001
 20
199.5771
 30
0.0
 10
-802.5731000000001
 20
199.5771
 30
0.0
 10
-802.5731000000001
 20
199.5771
 30
0.0
 10
-801.4513000000001
 20
199.5771
 30
0.0
 10
-801.4513000000001
 20
199.5771
 30
0.0
 10
-801.4513000000001
 20
199.5771
 30
0.0
 10
-801.4513000000001
 20
199.5771
 30
0.0
 10
-801.4513000000001
 20
198.7092
 30
0.0
 10
-801.4513000000001
 20
198.7092
 30
0.0
 10
-801.4513000000001
 20
198.7092
 30
0.0
 10
-801.4513000000001
 20
198.7092
 30
0.0
 10
-802.5731000000001
 20
198.7092
 30
0.0
 10
-802.5731000000001
 20
198.7092
 30
0.0
 10
-802.5731000000001
 20
198.7092
 30
0.0
 10
-802.5731000000001
 20
198.7092
 30
0.0
 10
-802.5731000000001
 20
194.859
 30
0.0
 10
-802.5731000000001
 20
194.859
 30
0.0
 10
-802.5731000000001
 20
194.859
 30
0.0
 10
-802.5731000000001
 20
194.5394
 30
0.0
 10
-802.5541000000001
 20
194.3362
 30
0.0
 10
-802.5160000000001
 20
194.2452
 30
0.0
 10
-802.5160000000001
 20
194.2452
 30
0.0
 10
-802.4758000000001
 20
194.1542
 30
0.0
 10
-802.4123000000001
 20
194.0822
 30
0.0
 10
-802.3234
 20
194.0272
 30
0.0
 10
-802.3234
 20
194.0272
 30
0.0
 10
-802.2345
 20
193.9742
 30
0.0
 10
-802.1075000000001
 20
193.9467
 30
0.0
 10
-801.9424
 20
193.9467
 30
0.0
 10
-801.9424
 20
193.9467
 30
0.0
 10
-801.8175
 20
193.9467
 30
0.0
 10
-801.6545
 20
193.9615
 30
0.0
 10
-801.4513000000001
 20
193.9912
 30
0.0
  0
SPLINE
  5
3F
330
1F
100
AcDbEntity
  8
Layer 1
 62
   250
100
AcDbSpline
210
0.0
220
0.0
230
1.0
 70
    11
 71
     3
 72
    40
 73
    36
 74
     0
 42
0.0000000001
 43
0.0000000001
 40
0.0
 40
0.0
 40
0.0
 40
0.0
 40
0.1111111111111111
 40
0.1111111111111111
 40
0.1111111111111111
 40
0.1111111111111111
 40
0.2222222222222222
 40
0.2222222222222222
 40
0.2222222222222222
 40
0.2222222222222222
 40
0.3333333333333333
 40
0.3333333333333333
 40
0.3333333333333333
 40
0.3333333333333333
 40
0.4444444444444444
 40
0.4444444444444444
 40
0.4444444444444444
 40
0.4444444444444444
 40
0.5555555555555556
 40
0.5555555555555556
 40
0.5555555555555556
 40
0.5555555555555556
 40
0.6666666666666667
 40
0.6666666666666667
 40
0.6666666666666667
 40
0.6666666666666667
 40
0.7777777777777779
 40
0.7777777777777779
 40
0.7777777777777779
 40
0.7777777777777779
 40
0.8888888888888891
 40
0.8888888888888891
 40
0.8888888888888891
 40
0.8888888888888891
 40
1.0
 40
1.0
 40
1.0
 40
1.0
 10
-800.7761
 20
196.2856
 30
0.0
 10
-800.7761
 20
197.5048
 30
0.0
 10
-800.4374
 20
198.4087
 30
0.0
 10
-799.758
 20
198.995
 30
0.0
 10
-799.758
 20
198.995
 30
0.0
 10
-799.1928
 20
199.4818
 30
0.0
 10
-798.5028000000001
 20
199.7273
 30
0.0
 10
-797.6879
 20
199.7273
 30
0.0
 10
-797.6879
 20
199.7273
 30
0.0
 10
-796.7819000000001
 20
199.7273
 30
0.0
 10
-796.0411
 20
199.431
 30
0.0
 10
-795.4675000000001
 20
198.8362
 30
0.0
 10
-795.4675000000001
 20
198.8362
 30
0.0
 10
-794.8917
 20
198.2436
 30
0.0
 10
-794.606
 20
197.4244
 30
0.0
 10
-794.606
 20
196.3788
 30
0.0
 10
-794.606
 20
196.3788
 30
0.0
 10
-794.606
 20
195.53
 30
0.0
 10
-794.7330000000001
 20
194.8632
 30
0.0
 10
-794.9870000000001
 20
194.3785
 30
0.0
 10
-794.9870000000001
 20
194.3785
 30
0.0
 10
-795.241
 20
193.8917
 30
0.0
 10
-795.6114
 20
193.5149
 30
0.0
 10
-796.0961000000001
 20
193.2461
 30
0.0
 10
-796.0961000000001
 20
193.2461
 30
0.0
 10
-796.5830000000001
 20
192.9773
 30
0.0
 10
-797.1121000000001
 20
192.8439
 30
0.0
 10
-797.6879
 20
192.8439
 30
0.0
 10
-797.6879
 20
192.8439
 30
0.0
 10
-798.6086
 20
192.8439
 30
0.0
 10
-799.3537
 20
193.1382
 30
0.0
 10
-799.9231000000001
 20
193.7308
 30
0.0
 10
-799.9231000000001
 20
193.7308
 30
0.0
 10
-800.4924000000001
 20
194.3214
 30
0.0
 10
-800.7761
 20
195.1723
 30
0.0
 10
-800.7761
 20
196.2856
 30
0.0
  0
SPLINE
  5
40
330
1F
100
AcDbEntity
  8
Layer 1
 62
   250
100
AcDbSpline
210
0.0
220
0.0
230
1.0
 70
    11
 71
     3
 72
    36
 73
    32
 74
     0
 42
0.0000000001
 43
0.0000000001
 40
0.0
 40
0.0
 40
0.0
 40
0.0
 40
0.125
 40
0.125
 40
0.125
 40
0.125
 40
0.25
 40
0.25
 40
0.25
 40
0.25
 40
0.375
 40
0.375
 40
0.375
 40
0.375
 40
0.5
 40
0.5
 40
0.5
 40
0.5
 40
0.625
 40
0.625
 40
0.625
 40
0.625
 40
0.75
 40
0.75
 40
0.75
 40
0.75
 40
0.875
 40
0.875
 40
0.875
 40
0.875
 40
1.0
 40
1.0
 40
1.0
 40
1.0
 10
-799.6288000000001
 20
196.2856
 30
0.0
 10
-799.6288000000001
 20
195.4411
 30
0.0
 10
-799.4447
 20
194.8103
 30
0.0
 10
-799.0764
 20
194.3912
 30
0.0
 10
-799.0764
 20
194.3912
 30
0.0
 10
-798.7081000000001
 20
193.97
 30
0.0
 10
-798.2445
 20
193.7605
 30
0.0
 10
-797.6879
 20
193.7605
 30
0.0
 10
-797.6879
 20
193.7605
 30
0.0
 10
-797.1333000000001
 20
193.7605
 30
0.0
 10
-796.6719000000001
 20
193.9721
 30
0.0
 10
-796.3036000000001
 20
194.3933
 30
0.0
 10
-796.3036000000001
 20
194.3933
 30
0.0
 10
-795.9374
 20
194.8146
 30
0.0
 10
-795.7532
 20
195.458
 30
0.0
 10
-795.7532
 20
196.3216
 30
0.0
 10
-795.7532
 20
196.3216
 30
0.0
 10
-795.7532
 20
197.1365
 30
0.0
 10
-795.9374
 20
197.7546
 30
0.0
 10
-796.3078
 20
198.1737
 30
0.0
 10
-796.3078
 20
198.1737
 30
0.0
 10
-796.6782000000001
 20
198.5928
 30
0.0
 10
-797.1375000000001
 20
198.8024
 30
0.0
 10
-797.6879
 20
198.8024
 30
0.0
 10
-797.6879
 20
198.8024
 30
0.0
 10
-798.2445
 20
198.8024
 30
0.0
 10
-798.7081000000001
 20
198.5928
 30
0.0
 10
-799.0764
 20
198.1758
 30
0.0
 10
-799.0764
 20
198.1758
 30
0.0
 10
-799.4447
 20
197.7588
 30
0.0
 10
-799.6288000000001
 20
197.1281
 30
0.0
 10
-799.6288000000001
 20
196.2856
 30
0.0
  0
SPLINE
  5
41
330
1F
100
AcDbEntity
  8
Layer 1
 62
   250
100
AcDbSpline
210
0.0
220
0.0
230
1.0
 70
    11
 71
     3
 72
    56
 73
    52
 74
     0
 42
0.0000000001
 43
0.0000000001
 40
0.0
 40
0.0
 40
0.0
 40
0.0
 40
0.0769230769230769
 40
0.0769230769230769
 40
0.0769230769230769
 40
0.0769230769230769
 40
0.1538461538461539
 40
0.1538461538461539
 40
0.1538461538461539
 40
0.1538461538461539
 40
0.2307692307692308
 40
0.2307692307692308
 40
0.2307692307692308
 40
0.2307692307692308
 40
0.3076923076923077
 40
0.3076923076923077
 40
0.3076923076923077
 40
0.3076923076923077
 40
0.3846153846153846
 40
0.3846153846153846
 40
0.3846153846153846
 40
0.3846153846153846
 40
0.4615384615384616
 40
0.4615384615384616
 40
0.4615384615384616
 40
0.4615384615384616
 40
0.5384615384615386
 40
0.5384615384615386
 40
0.5384615384615386
 40
0.5384615384615386
 40
0.6153846153846154
 40
0.6153846153846154
 40
0.6153846153846154
 40
0.6153846153846154
 40
0.6923076923076923
 40
0.6923076923076923
 40
0.6923076923076923
 40
0.6923076923076923
 40
0.7692307692307692
 40
0.7692307692307692
 40
0.7692307692307692
 40
0.7692307692307692
 40
0.846153846153846
 40
0.846153846153846
 40
0.846153846153846
 40
0.846153846153846
 40
0.9230769230769229
 40
0.9230769230769229
 40
0.9230769230769229
 40
0.9230769230769229
 40
1.0
 40
1.0
 40
1.0
 40
1.0
 10
-788.7386
 20
192.9921
 30
0.0
 10
-788.7386
 20
192.9921
 30
0.0
 10
-789.7736
 20
192.9921
 30
0.0
 10
-789.7736
 20
192.9921
 30
0.0
 10
-789.7736
 20
192.9921
 30
0.0
 10
-789.7736
 20
192.9921
 30
0.0
 10
-789.7736
 20
202.0832
 30
0.0
 10
-789.7736
 20
202.0832
 30
0.0
 10
-789.7736
 20
202.0832
 30
0.0
 10
-789.7736
 20
202.0832
 30
0.0
 10
-788.6582000000001
 20
202.0832
 30
0.0
 10
-788.6582000000001
 20
202.0832
 30
0.0
 10
-788.6582000000001
 20
202.0832
 30
0.0
 10
-788.6582000000001
 20
202.0832
 30
0.0
 10
-788.6582000000001
 20
198.8405
 30
0.0
 10
-788.6582000000001
 20
198.8405
 30
0.0
 10
-788.6582000000001
 20
198.8405
 30
0.0
 10
-788.1861
 20
199.431
 30
0.0
 10
-787.585
 20
199.7273
 30
0.0
 10
-786.8548000000001
 20
199.7273
 30
0.0
 10
-786.8548000000001
 20
199.7273
 30
0.0
 10
-786.4484
 20
199.7273
 30
0.0
 10
-786.0652
 20
199.6448
 30
0.0
 10
-785.7033
 20
199.4818
 30
0.0
 10
-785.7033
 20
199.4818
 30
0.0
 10
-785.3413000000001
 20
199.3188
 30
0.0
 10
-785.0450000000001
 20
199.0881
 30
0.0
 10
-784.8101
 20
198.7939
 30
0.0
 10
-784.8101
 20
198.7939
 30
0.0
 10
-784.5772000000001
 20
198.4976
 30
0.0
 10
-784.3931
 20
198.142
 30
0.0
 10
-784.2618
 20
197.7229
 30
0.0
 10
-784.2618
 20
197.7229
 30
0.0
 10
-784.1285
 20
197.3059
 30
0.0
 10
-784.0629
 20
196.8593
 30
0.0
 10
-784.0629
 20
196.3851
 30
0.0
 10
-784.0629
 20
196.3851
 30
0.0
 10
-784.0629
 20
195.2548
 30
0.0
 10
-784.3423
 20
194.3828
 30
0.0
 10
-784.9011
 20
193.7668
 30
0.0
 10
-784.9011
 20
193.7668
 30
0.0
 10
-785.4578
 20
193.1509
 30
0.0
 10
-786.1287000000001
 20
192.8439
 30
0.0
 10
-786.9098
 20
192.8439
 30
0.0
 10
-786.9098
 20
192.8439
 30
0.0
 10
-787.6866
 20
192.8439
 30
0.0
 10
-788.2962
 20
193.1678
 30
0.0
 10
-788.7386
 20
193.8176
 30
0.0
 10
-788.7386
 20
193.8176
 30
0.0
 10
-788.7386
 20
193.8176
 30
0.0
 10
-788.7386
 20
192.9921
 30
0.0
 10
-788.7386
 20
192.9921
 30
0.0
  0
SPLINE
  5
42
330
1F
100
AcDbEntity
  8
Layer 1
 62
   250
100
AcDbSpline
210
0.0
220
0.0
230
1.0
 70
    11
 71
     3
 72
    36
 73
    32
 74
     0
 42
0.0000000001
 43
0.0000000001
 40
0.0
 40
0.0
 40
0.0
 40
0.0
 40
0.125
 40
0.125
 40
0.125
 40
0.125
 40
0.25
 40
0.25
 40
0.25
 40
0.25
 40
0.375
 40
0.375
 40
0.375
 40
0.375
 40
0.5
 40
0.5
 40
0.5
 40
0.5
 40
0.625
 40
0.625
 40
0.625
 40
0.625
 40
0.75
 40
0.75
 40
0.75
 40
0.75
 40
0.875
 40
0.875
 40
0.875
 40
0.875
 40
1.0
 40
1.0
 40
1.0
 40
1.0
 10
-788.7513
 20
196.3343
 30
0.0
 10
-788.7513
 20
195.5448
 30
0.0
 10
-788.6433000000001
 20
194.9754
 30
0.0
 10
-788.4296000000001
 20
194.6241
 30
0.0
 10
-788.4296000000001
 20
194.6241
 30
0.0
 10
-788.0782
 20
194.0483
 30
0.0
 10
-787.6019
 20
193.7605
 30
0.0
 10
-787.0029000000001
 20
193.7605
 30
0.0
 10
-787.0029000000001
 20
193.7605
 30
0.0
 10
-786.514
 20
193.7605
 30
0.0
 10
-786.0928
 20
193.9721
 30
0.0
 10
-785.7372
 20
194.3976
 30
0.0
 10
-785.7372
 20
194.3976
 30
0.0
 10
-785.3816000000001
 20
194.8209
 30
0.0
 10
-785.2038
 20
195.4517
 30
0.0
 10
-785.2038
 20
196.292
 30
0.0
 10
-785.2038
 20
196.292
 30
0.0
 10
-785.2038
 20
197.1514
 30
0.0
 10
-785.3752000000001
 20
197.7864
 30
0.0
 10
-785.716
 20
198.1949
 30
0.0
 10
-785.716
 20
198.1949
 30
0.0
 10
-786.0568000000001
 20
198.6034
 30
0.0
 10
-786.4695
 20
198.8087
 30
0.0
 10
-786.9521000000001
 20
198.8087
 30
0.0
 10
-786.9521000000001
 20
198.8087
 30
0.0
 10
-787.4411
 20
198.8087
 30
0.0
 10
-787.8623
 20
198.597
 30
0.0
 10
-788.2179
 20
198.1737
 30
0.0
 10
-788.2179
 20
198.1737
 30
0.0
 10
-788.5735000000001
 20
197.7504
 30
0.0
 10
-788.7513
 20
197.1365
 30
0.0
 10
-788.7513
 20
196.3343
 30
0.0
  0
SPLINE
  5
43
330
1F
100
AcDbEntity
  8
Layer 1
 62
   250
100
AcDbSpline
210
0.0
220
0.0
230
1.0
 70
    11
 71
     3
 72
    40
 73
    36
 74
     0
 42
0.0000000001
 43
0.0000000001
 40
0.0
 40
0.0
 40
0.0
 40
0.0
 40
0.1111111111111111
 40
0.1111111111111111
 40
0.1111111111111111
 40
0.1111111111111111
 40
0.2222222222222222
 40
0.2222222222222222
 40
0.2222222222222222
 40
0.2222222222222222
 40
0.3333333333333333
 40
0.3333333333333333
 40
0.3333333333333333
 40
0.3333333333333333
 40
0.4444444444444444
 40
0.4444444444444444
 40
0.4444444444444444
 40
0.4444444444444444
 40
0.5555555555555556
 40
0.5555555555555556
 40
0.5555555555555556
 40
0.5555555555555556
 40
0.6666666666666667
 40
0.6666666666666667
 40
0.6666666666666667
 40
0.6666666666666667
 40
0.7777777777777779
 40
0.7777777777777779
 40
0.7777777777777779
 40
0.7777777777777779
 40
0.8888888888888891
 40
0.8888888888888891
 40
0.8888888888888891
 40
0.8888888888888891
 40
1.0
 40
1.0
 40
1.0
 40
1.0
 10
-783.121
 20
196.2856
 30
0.0
 10
-783.121
 20
197.5048
 30
0.0
 10
-782.7823000000001
 20
198.4087
 30
0.0
 10
-782.1029000000001
 20
198.995
 30
0.0
 10
-782.1029000000001
 20
198.995
 30
0.0
 10
-781.5377000000001
 20
199.4818
 30
0.0
 10
-780.8477
 20
199.7273
 30
0.0
 10
-780.0328000000001
 20
199.7273
 30
0.0
 10
-780.0328000000001
 20
199.7273
 30
0.0
 10
-779.1268
 20
199.7273
 30
0.0
 10
-778.3860000000001
 20
199.431
 30
0.0
 10
-777.8124
 20
198.8362
 30
0.0
 10
-777.8124
 20
198.8362
 30
0.0
 10
-777.2366000000001
 20
198.2436
 30
0.0
 10
-776.9509000000001
 20
197.4244
 30
0.0
 10
-776.9509000000001
 20
196.3788
 30
0.0
 10
-776.9509000000001
 20
196.3788
 30
0.0
 10
-776.9509000000001
 20
195.53
 30
0.0
 10
-777.0779
 20
194.8632
 30
0.0
 10
-777.3319
 20
194.3785
 30
0.0
 10
-777.3319
 20
194.3785
 30
0.0
 10
-777.5859
 20
193.8917
 30
0.0
 10
-777.9563000000001
 20
193.5149
 30
0.0
 10
-778.441
 20
193.2461
 30
0.0
 10
-778.441
 20
193.2461
 30
0.0
 10
-778.9279
 20
192.9773
 30
0.0
 10
-779.457
 20
192.8439
 30
0.0
 10
-780.0328000000001
 20
192.8439
 30
0.0
 10
-780.0328000000001
 20
192.8439
 30
0.0
 10
-780.9535000000001
 20
192.8439
 30
0.0
 10
-781.6986000000001
 20
193.1382
 30
0.0
 10
-782.268
 20
193.7308
 30
0.0
 10
-782.268
 20
193.7308
 30
0.0
 10
-782.8373
 20
194.3214
 30
0.0
 10
-783.121
 20
195.1723
 30
0.0
 10
-783.121
 20
196.2856
 30
0.0
  0
SPLINE
  5
44
330
1F
100
AcDbEntity
  8
Layer 1
 62
   250
100
AcDbSpline
210
0.0
220
0.0
230
1.0
 70
    11
 71
     3
 72
    36
 73
    32
 74
     0
 42
0.0000000001
 43
0.0000000001
 40
0.0
 40
0.0
 40
0.0
 40
0.0
 40
0.125
 40
0.125
 40
0.125
 40
0.125
 40
0.25
 40
0.25
 40
0.25
 40
0.25
 40
0.375
 40
0.375
 40
0.375
 40
0.375
 40
0.5
 40
0.5
 40
0.5
 40
0.5
 40
0.625
 40
0.625
 40
0.625
 40
0.625
 40
0.75
 40
0.75
 40
0.75
 40
0.75
 40
0.875
 40
0.875
 40
0.875
 40
0.875
 40
1.0
 40
1.0
 40
1.0
 40
1.0
 10
-781.9737
 20
196.2856
 30
0.0
 10
-781.9737
 20
195.4411
 30
0.0
 10
-781.7896000000001
 20
194.8103
 30
0.0
 10
-781.4213000000001
 20
194.3912
 30
0.0
 10
-781.4213000000001
 20
194.3912
 30
0.0
 10
-781.053
 20
193.97
 30
0.0
 10
-780.5894000000001
 20
193.7605
 30
0.0
 10
-780.0328000000001
 20
193.7605
 30
0.0
 10
-780.0328000000001
 20
193.7605
 30
0.0
 10
-779.4782
 20
193.7605
 30
0.0
 10
-779.0168
 20
193.9721
 30
0.0
 10
-778.6485
 20
194.3933
 30
0.0
 10
-778.6485
 20
194.3933
 30
0.0
 10
-778.2823000000001
 20
194.8146
 30
0.0
 10
-778.0981
 20
195.458
 30
0.0
 10
-778.0981
 20
196.3216
 30
0.0
 10
-778.0981
 20
196.3216
 30
0.0
 10
-778.0981
 20
197.1365
 30
0.0
 10
-778.2823000000001
 20
197.7546
 30
0.0
 10
-778.6527
 20
198.1737
 30
0.0
 10
-778.6527
 20
198.1737
 30
0.0
 10
-779.0231
 20
198.5928
 30
0.0
 10
-779.4824
 20
198.8024
 30
0.0
 10
-780.0328000000001
 20
198.8024
 30
0.0
 10
-780.0328000000001
 20
198.8024
 30
0.0
 10
-780.5894000000001
 20
198.8024
 30
0.0
 10
-781.053
 20
198.5928
 30
0.0
 10
-781.4213000000001
 20
198.1758
 30
0.0
 10
-781.4213000000001
 20
198.1758
 30
0.0
 10
-781.7896000000001
 20
197.7588
 30
0.0
 10
-781.9737
 20
197.1281
 30
0.0
 10
-781.9737
 20
196.2856
 30
0.0
  0
SPLINE
  5
45
330
1F
100
AcDbEntity
  8
Layer 1
 62
   250
100
AcDbSpline
210
0.0
220
0.0
230
1.0
 70
    11
 71
     3
 72
    76
 73
    72
 74
     0
 42
0.0000000001
 43
0.0000000001
 40
0.0
 40
0.0
 40
0.0
 40
0.0
 40
0.0555555555555556
 40
0.0555555555555556
 40
0.0555555555555556
 40
0.0555555555555556
 40
0.1111111111111111
 40
0.1111111111111111
 40
0.1111111111111111
 40
0.1111111111111111
 40
0.1666666666666667
 40
0.1666666666666667
 40
0.1666666666666667
 40
0.1666666666666667
 40
0.2222222222222222
 40
0.2222222222222222
 40
0.2222222222222222
 40
0.2222222222222222
 40
0.2777777777777778
 40
0.2777777777777778
 40
0.2777777777777778
 40
0.2777777777777778
 40
0.3333333333333334
 40
0.3333333333333334
 40
0.3333333333333334
 40
0.3333333333333334
 40
0.388888888888889
 40
0.388888888888889
 40
0.388888888888889
 40
0.388888888888889
 40
0.4444444444444445
 40
0.4444444444444445
 40
0.4444444444444445
 40
0.4444444444444445
 40
0.5000000000000001
 40
0.5000000000000001
 40
0.5000000000000001
 40
0.5000000000000001
 40
0.5555555555555557
 40
0.5555555555555557
 40
0.5555555555555557
 40
0.5555555555555557
 40
0.6111111111111113
 40
0.6111111111111113
 40
0.6111111111111113
 40
0.6111111111111113
 40
0.6666666666666669
 40
0.6666666666666669
 40
0.6666666666666669
 40
0.6666666666666669
 40
0.7222222222222224
 40
0.7222222222222224
 40
0.7222222222222224
 40
0.7222222222222224
 40
0.777777777777778
 40
0.777777777777778
 40
0.777777777777778
 40
0.777777777777778
 40
0.8333333333333336
 40
0.8333333333333336
 40
0.8333333333333336
 40
0.8333333333333336
 40
0.8888888888888892
 40
0.8888888888888892
 40
0.8888888888888892
 40
0.8888888888888892
 40
0.9444444444444448
 40
0.9444444444444448
 40
0.9444444444444448
 40
0.9444444444444448
 40
1.0
 40
1.0
 40
1.0
 40
1.0
 10
-774.4257
 20
192.9921
 30
0.0
 10
-774.4257
 20
192.9921
 30
0.0
 10
-776.4408000000001
 20
199.5771
 30
0.0
 10
-776.4408000000001
 20
199.5771
 30
0.0
 10
-776.4408000000001
 20
199.5771
 30
0.0
 10
-776.4408000000001
 20
199.5771
 30
0.0
 10
-775.2872
 20
199.5771
 30
0.0
 10
-775.2872
 20
199.5771
 30
0.0
 10
-775.2872
 20
199.5771
 30
0.0
 10
-775.2872
 20
199.5771
 30
0.0
 10
-774.2395
 20
195.7755
 30
0.0
 10
-774.2395
 20
195.7755
 30
0.0
 10
-774.2395
 20
195.7755
 30
0.0
 10
-774.2395
 20
195.7755
 30
0.0
 10
-773.85
 20
194.3616
 30
0.0
 10
-773.85
 20
194.3616
 30
0.0
 10
-773.85
 20
194.3616
 30
0.0
 10
-773.8331000000001
 20
194.4336
 30
0.0
 10
-773.7188
 20
194.8865
 30
0.0
 10
-773.5092000000001
 20
195.7205
 30
0.0
 10
-773.5092000000001
 20
195.7205
 30
0.0
 10
-773.5092000000001
 20
195.7205
 30
0.0
 10
-772.4615
 20
199.5771
 30
0.0
 10
-772.4615
 20
199.5771
 30
0.0
 10
-772.4615
 20
199.5771
 30
0.0
 10
-772.4615
 20
199.5771
 30
0.0
 10
-771.3142
 20
199.5771
 30
0.0
 10
-771.3142
 20
199.5771
 30
0.0
 10
-771.3142
 20
199.5771
 30
0.0
 10
-771.3142
 20
199.5771
 30
0.0
 10
-770.3279
 20
195.7586
 30
0.0
 10
-770.3279
 20
195.7586
 30
0.0
 10
-770.3279
 20
195.7586
 30
0.0
 10
-770.3279
 20
195.7586
 30
0.0
 10
-769.9977
 20
194.4992
 30
0.0
 10
-769.9977
 20
194.4992
 30
0.0
 10
-769.9977
 20
194.4992
 30
0.0
 10
-769.9977
 20
194.4992
 30
0.0
 10
-769.6209
 20
195.7713
 30
0.0
 10
-769.6209
 20
195.7713
 30
0.0
 10
-769.6209
 20
195.7713
 30
0.0
 10
-769.6209
 20
195.7713
 30
0.0
 10
-768.4927
 20
199.5771
 30
0.0
 10
-768.4927
 20
199.5771
 30
0.0
 10
-768.4927
 20
199.5771
 30
0.0
 10
-768.4927
 20
199.5771
 30
0.0
 10
-767.4069000000001
 20
199.5771
 30
0.0
 10
-767.4069000000001
 20
199.5771
 30
0.0
 10
-767.4069000000001
 20
199.5771
 30
0.0
 10
-767.4069000000001
 20
199.5771
 30
0.0
 10
-769.4664
 20
192.9921
 30
0.0
 10
-769.4664
 20
192.9921
 30
0.0
 10
-769.4664
 20
192.9921
 30
0.0
 10
-769.4664
 20
192.9921
 30
0.0
 10
-770.6242000000001
 20
192.9921
 30
0.0
 10
-770.6242000000001
 20
192.9921
 30
0.0
 10
-770.6242000000001
 20
192.9921
 30
0.0
 10
-770.6242000000001
 20
192.9921
 30
0.0
 10
-771.6719000000001
 20
196.9355
 30
0.0
 10
-771.6719000000001
 20
196.9355
 30
0.0
 10
-771.6719000000001
 20
196.9355
 30
0.0
 10
-771.6719000000001
 20
196.9355
 30
0.0
 10
-771.9281000000001
 20
198.0594
 30
0.0
 10
-771.9281000000001
 20
198.0594
 30
0.0
 10
-771.9281000000001
 20
198.0594
 30
0.0
 10
-771.9281000000001
 20
198.0594
 30
0.0
 10
-773.2594
 20
192.9921
 30
0.0
 10
-773.2594
 20
192.9921
 30
0.0
 10
-773.2594
 20
192.9921
 30
0.0
 10
-773.2594
 20
192.9921
 30
0.0
 10
-774.4257
 20
192.9921
 30
0.0
 10
-774.4257
 20
192.9921
 30
0.0
  0
SPLINE
  5
46
330
1F
100
AcDbEntity
  8
Layer 1
 62
   250
100
AcDbSpline
210
0.0
220
0.0
230
1.0
 70
    11
 71
     3
 72
    20
 73
    16
 74
     0
 42
0.0000000001
 43
0.0000000001
 40
0.0
 40
0.0
 40
0.0
 40
0.0
 40
0.25
 40
0.25
 40
0.25
 40
0.25
 40
0.5
 40
0.5
 40
0.5
 40
0.5
 40
0.75
 40
0.75
 40
0.75
 40
0.75
 40
1.0
 40
1.0
 40
1.0
 40
1.0
 10
-766.4946
 20
192.9921
 30
0.0
 10
-766.4946
 20
192.9921
 30
0.0
 10
-766.4946
 20
202.0832
 30
0.0
 10
-766.4946
 20
202.0832
 30
0.0
 10
-766.4946
 20
202.0832
 30
0.0
 10
-766.4946
 20
202.0832
 30
0.0
 10
-765.3791
 20
202.0832
 30
0.0
 10
-765.3791
 20
202.0832
 30
0.0
 10
-765.3791
 20
202.0832
 30
0.0
 10
-765.3791
 20
202.0832
 30
0.0
 10
-765.3791
 20
192.9921
 30
0.0
 10
-765.3791
 20
192.9921
 30
0.0
 10
-765.3791
 20
192.9921
 30
0.0
 10
-765.3791
 20
192.9921
 30
0.0
 10
-766.4946
 20
192.9921
 30
0.0
 10
-766.4946
 20
192.9921
 30
0.0
  0
SPLINE
  5
47
330
1F
100
AcDbEntity
  8
Layer 1
 62
   250
370
     5
100
AcDbSpline
210
0.0
220
0.0
230
1.0
 70
    11
 71
     3
 72
    32
 73
    28
 74
     0
 42
0.0000000001
 43
0.0000000001
 40
0.0
 40
0.0
 40
0.0
 40
0.0
 40
0.1428571428571429
 40
0.1428571428571429
 40
0.1428571428571429
 40
0.1428571428571429
 40
0.2857142857142857
 40
0.2857142857142857
 40
0.2857142857142857
 40
0.2857142857142857
 40
0.4285714285714286
 40
0.4285714285714286
 40
0.4285714285714286
 40
0.4285714285714286
 40
0.5714285714285714
 40
0.5714285714285714
 40
0.5714285714285714
 40
0.5714285714285714
 40
0.7142857142857142
 40
0.7142857142857142
 40
0.7142857142857142
 40
0.7142857142857142
 40
0.857142857142857
 40
0.857142857142857
 40
0.857142857142857
 40
0.857142857142857
 40
1.0
 40
1.0
 40
1.0
 40
1.0
 10
-877.3876
 20
186.1947
 30
0.0
 10
-877.3876
 20
186.1947
 30
0.0
 10
-877.3876
 20
204.1657
 30
0.0
 10
-877.3876
 20
204.1657
 30
0.0
 10
-877.3876
 20
204.1657
 30
0.0
 10
-877.3876
 20
204.1657
 30
0.0
 10
-756.2983
 20
204.1657
 30
0.0
 10
-756.2983
 20
204.1657
 30
0.0
 10
-756.2983
 20
204.1657
 30
0.0
 10
-756.2983
 20
204.1657
 30
0.0
 10
-756.2983
 20
186.1947
 30
0.0
 10
-756.2983
 20
186.1947
 30
0.0
 10
-756.2983
 20
186.1947
 30
0.0
 10
-756.2983
 20
186.1947
 30
0.0
 10
-825.9246000000001
 20
186.1947
 30
0.0
 10
-825.9246000000001
 20
186.1947
 30
0.0
 10
-825.9246000000001
 20
186.1947
 30
0.0
 10
-825.9246000000001
 20
186.1947
 30
0.0
 10
-907.6599
 20
178.4933
 30
0.0
 10
-907.6599
 20
178.4933
 30
0.0
 10
-907.6599
 20
178.4933
 30
0.0
 10
-907.6599
 20
178.4933
 30
0.0
 10
-853.1697
 20
186.1947
 30
0.0
 10
-853.1697
 20
186.1947
 30
0.0
 10
-853.1697
 20
186.1947
 30
0.0
 10
-853.1697
 20
186.1947
 30
0.0
 10
-877.3876
 20
186.1947
 30
0.0
 10
-877.3876
 20
186.1947
 30
0.0
  0
SPLINE
  5
48
330
1F
100
AcDbEntity
  8
Layer 1
 62
   250
100
AcDbSpline
210
0.0
220
0.0
230
1.0
 70
    11
 71
     3
 72
    44
 73
    40
 74
     0
 42
0.0000000001
 43
0.0000000001
 40
0.0
 40
0.0
 40
0.0
 40
0.0
 40
0.1
 40
0.1
 40
0.1
 40
0.1
 40
0.2
 40
0.2
 40
0.2
 40
0.2
 40
0.3
 40
0.3
 40
0.3
 40
0.3
 40
0.4
 40
0.4
 40
0.4
 40
0.4
 40
0.5
 40
0.5
 40
0.5
 40
0.5
 40
0.6
 40
0.6
 40
0.6
 40
0.6
 40
0.7
 40
0.7
 40
0.7
 40
0.7
 40
0.7999999999999999
 40
0.7999999999999999
 40
0.7999999999999999
 40
0.7999999999999999
 40
0.8999999999999999
 40
0.8999999999999999
 40
0.8999999999999999
 40
0.8999999999999999
 40
1.0
 40
1.0
 40
1.0
 40
1.0
 10
-832.4913
 20
246.9625
 30
0.0
 10
-832.4913
 20
246.9625
 30
0.0
 10
-832.4913
 20
256.0536
 30
0.0
 10
-832.4913
 20
256.0536
 30
0.0
 10
-832.4913
 20
256.0536
 30
0.0
 10
-832.4913
 20
256.0536
 30
0.0
 10
-826.3572
 20
256.0536
 30
0.0
 10
-826.3572
 20
256.0536
 30
0.0
 10
-826.3572
 20
256.0536
 30
0.0
 10
-826.3572
 20
256.0536
 30
0.0
 10
-826.3572
 20
254.9804
 30
0.0
 10
-826.3572
 20
254.9804
 30
0.0
 10
-826.3572
 20
254.9804
 30
0.0
 10
-826.3572
 20
254.9804
 30
0.0
 10
-831.2869000000001
 20
254.9804
 30
0.0
 10
-831.2869000000001
 20
254.9804
 30
0.0
 10
-831.2869000000001
 20
254.9804
 30
0.0
 10
-831.2869000000001
 20
254.9804
 30
0.0
 10
-831.2869000000001
 20
252.1653
 30
0.0
 10
-831.2869000000001
 20
252.1653
 30
0.0
 10
-831.2869000000001
 20
252.1653
 30
0.0
 10
-831.2869000000001
 20
252.1653
 30
0.0
 10
-827.0218
 20
252.1653
 30
0.0
 10
-827.0218
 20
252.1653
 30
0.0
 10
-827.0218
 20
252.1653
 30
0.0
 10
-827.0218
 20
252.1653
 30
0.0
 10
-827.0218
 20
251.0921
 30
0.0
 10
-827.0218
 20
251.0921
 30
0.0
 10
-827.0218
 20
251.0921
 30
0.0
 10
-827.0218
 20
251.0921
 30
0.0
 10
-831.2869000000001
 20
251.0921
 30
0.0
 10
-831.2869000000001
 20
251.0921
 30
0.0
 10
-831.2869000000001
 20
251.0921
 30
0.0
 10
-831.2869000000001
 20
251.0921
 30
0.0
 10
-831.2869000000001
 20
246.9625
 30
0.0
 10
-831.2869000000001
 20
246.9625
 30
0.0
 10
-831.2869000000001
 20
246.9625
 30
0.0
 10
-831.2869000000001
 20
246.9625
 30
0.0
 10
-832.4913
 20
246.9625
 30
0.0
 10
-832.4913
 20
246.9625
 30
0.0
  0
SPLINE
  5
49
330
1F
100
AcDbEntity
  8
Layer 1
 62
   250
100
AcDbSpline
210
0.0
220
0.0
230
1.0
 70
    11
 71
     3
 72
    20
 73
    16
 74
     0
 42
0.0000000001
 43
0.0000000001
 40
0.0
 40
0.0
 40
0.0
 40
0.0
 40
0.25
 40
0.25
 40
0.25
 40
0.25
 40
0.5
 40
0.5
 40
0.5
 40
0.5
 40
0.75
 40
0.75
 40
0.75
 40
0.75
 40
1.0
 40
1.0
 40
1.0
 40
1.0
 10
-824.9623
 20
246.9625
 30
0.0
 10
-824.9623
 20
246.9625
 30
0.0
 10
-824.9623
 20
256.0536
 30
0.0
 10
-824.9623
 20
256.0536
 30
0.0
 10
-824.9623
 20
256.0536
 30
0.0
 10
-824.9623
 20
256.0536
 30
0.0
 10
-823.8468
 20
256.0536
 30
0.0
 10
-823.8468
 20
256.0536
 30
0.0
 10
-823.8468
 20
256.0536
 30
0.0
 10
-823.8468
 20
256.0536
 30
0.0
 10
-823.8468
 20
246.9625
 30
0.0
 10
-823.8468
 20
246.9625
 30
0.0
 10
-823.8468
 20
246.9625
 30
0.0
 10
-823.8468
 20
246.9625
 30
0.0
 10
-824.9623
 20
246.9625
 30
0.0
 10
-824.9623
 20
246.9625
 30
0.0
  0
SPLINE
  5
4A
330
1F
100
AcDbEntity
  8
Layer 1
 62
   250
100
AcDbSpline
210
0.0
220
0.0
230
1.0
 70
    11
 71
     3
 72
    80
 73
    76
 74
     0
 42
0.0000000001
 43
0.0000000001
 40
0.0
 40
0.0
 40
0.0
 40
0.0
 40
0.0526315789473684
 40
0.0526315789473684
 40
0.0526315789473684
 40
0.0526315789473684
 40
0.1052631578947368
 40
0.1052631578947368
 40
0.1052631578947368
 40
0.1052631578947368
 40
0.1578947368421053
 40
0.1578947368421053
 40
0.1578947368421053
 40
0.1578947368421053
 40
0.2105263157894737
 40
0.2105263157894737
 40
0.2105263157894737
 40
0.2105263157894737
 40
0.2631578947368421
 40
0.2631578947368421
 40
0.2631578947368421
 40
0.2631578947368421
 40
0.3157894736842105
 40
0.3157894736842105
 40
0.3157894736842105
 40
0.3157894736842105
 40
0.3684210526315789
 40
0.3684210526315789
 40
0.3684210526315789
 40
0.3684210526315789
 40
0.4210526315789474
 40
0.4210526315789474
 40
0.4210526315789474
 40
0.4210526315789474
 40
0.4736842105263158
 40
0.4736842105263158
 40
0.4736842105263158
 40
0.4736842105263158
 40
0.5263157894736842
 40
0.5263157894736842
 40
0.5263157894736842
 40
0.5263157894736842
 40
0.5789473684210527
 40
0.5789473684210527
 40
0.5789473684210527
 40
0.5789473684210527
 40
0.631578947368421
 40
0.631578947368421
 40
0.631578947368421
 40
0.631578947368421
 40
0.6842105263157894
 40
0.6842105263157894
 40
0.6842105263157894
 40
0.6842105263157894
 40
0.7368421052631577
 40
0.7368421052631577
 40
0.7368421052631577
 40
0.7368421052631577
 40
0.7894736842105261
 40
0.7894736842105261
 40
0.7894736842105261
 40
0.7894736842105261
 40
0.8421052631578945
 40
0.8421052631578945
 40
0.8421052631578945
 40
0.8421052631578945
 40
0.8947368421052628
 40
0.8947368421052628
 40
0.8947368421052628
 40
0.8947368421052628
 40
0.9473684210526312
 40
0.9473684210526312
 40
0.9473684210526312
 40
0.9473684210526312
 40
1.0
 40
1.0
 40
1.0
 40
1.0
 10
-817.7995000000001
 20
246.9625
 30
0.0
 10
-817.7995000000001
 20
246.9625
 30
0.0
 10
-817.7995000000001
 20
247.9298
 30
0.0
 10
-817.7995000000001
 20
247.9298
 30
0.0
 10
-817.7995000000001
 20
247.9298
 30
0.0
 10
-818.3139
 20
247.1848
 30
0.0
 10
-819.0102000000001
 20
246.8143
 30
0.0
 10
-819.8908
 20
246.8143
 30
0.0
 10
-819.8908
 20
246.8143
 30
0.0
 10
-820.2781
 20
246.8143
 30
0.0
 10
-820.6422
 20
246.8884
 30
0.0
 10
-820.9787
 20
247.0366
 30
0.0
 10
-820.9787
 20
247.0366
 30
0.0
 10
-821.3153000000001
 20
247.1848
 30
0.0
 10
-821.5651
 20
247.3731
 30
0.0
 10
-821.7280000000001
 20
247.5975
 30
0.0
 10
-821.7280000000001
 20
247.5975
 30
0.0
 10
-821.8931
 20
247.824
 30
0.0
 10
-822.0074000000001
 20
248.0992
 30
0.0
 10
-822.0731000000001
 20
248.4251
 30
0.0
 10
-822.0731000000001
 20
248.4251
 30
0.0
 10
-822.1175000000001
 20
248.6453
 30
0.0
 10
-822.1408
 20
248.9924
 30
0.0
 10
-822.1408
 20
249.4686
 30
0.0
 10
-822.1408
 20
249.4686
 30
0.0
 10
-822.1408
 20
249.4686
 30
0.0
 10
-822.1408
 20
253.5475
 30
0.0
 10
-822.1408
 20
253.5475
 30
0.0
 10
-822.1408
 20
253.5475
 30
0.0
 10
-822.1408
 20
253.5475
 30
0.0
 10
-821.0253
 20
253.5475
 30
0.0
 10
-821.0253
 20
253.5475
 30
0.0
 10
-821.0253
 20
253.5475
 30
0.0
 10
-821.0253
 20
253.5475
 30
0.0
 10
-821.0253
 20
249.8962
 30
0.0
 10
-821.0253
 20
249.8962
 30
0.0
 10
-821.0253
 20
249.8962
 30
0.0
 10
-821.0253
 20
249.312
 30
0.0
 10
-821.0020000000001
 20
248.9204
 30
0.0
 10
-820.9576000000001
 20
248.7172
 30
0.0
 10
-820.9576000000001
 20
248.7172
 30
0.0
 10
-820.8856000000001
 20
248.423
 30
0.0
 10
-820.7374000000001
 20
248.1944
 30
0.0
 10
-820.5110000000001
 20
248.0251
 30
0.0
 10
-820.5110000000001
 20
248.0251
 30
0.0
 10
-820.2824000000001
 20
247.8579
 30
0.0
 10
-820.0008
 20
247.7753
 30
0.0
 10
-819.6664000000001
 20
247.7753
 30
0.0
 10
-819.6664000000001
 20
247.7753
 30
0.0
 10
-819.332
 20
247.7753
 30
0.0
 10
-819.0187000000001
 20
247.86
 30
0.0
 10
-818.7245
 20
248.0314
 30
0.0
 10
-818.7245
 20
248.0314
 30
0.0
 10
-818.4303
 20
248.2029
 30
0.0
 10
-818.2228
 20
248.4378
 30
0.0
 10
-818.1022
 20
248.732
 30
0.0
 10
-818.1022
 20
248.732
 30
0.0
 10
-817.9794000000001
 20
249.0284
 30
0.0
 10
-817.918
 20
249.4581
 30
0.0
 10
-817.918
 20
250.019
 30
0.0
 10
-817.918
 20
250.019
 30
0.0
 10
-817.918
 20
250.019
 30
0.0
 10
-817.918
 20
253.5475
 30
0.0
 10
-817.918
 20
253.5475
 30
0.0
 10
-817.918
 20
253.5475
 30
0.0
 10
-817.918
 20
253.5475
 30
0.0
 10
-816.8026
 20
253.5475
 30
0.0
 10
-816.8026
 20
253.5475
 30
0.0
 10
-816.8026
 20
253.5475
 30
0.0
 10
-816.8026
 20
253.5475
 30
0.0
 10
-816.8026
 20
246.9625
 30
0.0
 10
-816.8026
 20
246.9625
 30
0.0
 10
-816.8026
 20
246.9625
 30
0.0
 10
-816.8026
 20
246.9625
 30
0.0
 10
-817.7995000000001
 20
246.9625
 30
0.0
 10
-817.7995000000001
 20
246.9625
 30
0.0
  0
SPLINE
  5
4B
330
1F
100
AcDbEntity
  8
Layer 1
 62
   250
100
AcDbSpline
210
0.0
220
0.0
230
1.0
 70
    11
 71
     3
 72
   136
 73
   132
 74
     0
 42
0.0000000001
 43
0.0000000001
 40
0.0
 40
0.0
 40
0.0
 40
0.0
 40
0.0303030303030303
 40
0.0303030303030303
 40
0.0303030303030303
 40
0.0303030303030303
 40
0.0606060606060606
 40
0.0606060606060606
 40
0.0606060606060606
 40
0.0606060606060606
 40
0.0909090909090909
 40
0.0909090909090909
 40
0.0909090909090909
 40
0.0909090909090909
 40
0.1212121212121212
 40
0.1212121212121212
 40
0.1212121212121212
 40
0.1212121212121212
 40
0.1515151515151515
 40
0.1515151515151515
 40
0.1515151515151515
 40
0.1515151515151515
 40
0.1818181818181818
 40
0.1818181818181818
 40
0.1818181818181818
 40
0.1818181818181818
 40
0.2121212121212121
 40
0.2121212121212121
 40
0.2121212121212121
 40
0.2121212121212121
 40
0.2424242424242424
 40
0.2424242424242424
 40
0.2424242424242424
 40
0.2424242424242424
 40
0.2727272727272727
 40
0.2727272727272727
 40
0.2727272727272727
 40
0.2727272727272727
 40
0.303030303030303
 40
0.303030303030303
 40
0.303030303030303
 40
0.303030303030303
 40
0.3333333333333333
 40
0.3333333333333333
 40
0.3333333333333333
 40
0.3333333333333333
 40
0.3636363636363635
 40
0.3636363636363635
 40
0.3636363636363635
 40
0.3636363636363635
 40
0.3939393939393938
 40
0.3939393939393938
 40
0.3939393939393938
 40
0.3939393939393938
 40
0.4242424242424241
 40
0.4242424242424241
 40
0.4242424242424241
 40
0.4242424242424241
 40
0.4545454545454544
 40
0.4545454545454544
 40
0.4545454545454544
 40
0.4545454545454544
 40
0.4848484848484846
 40
0.4848484848484846
 40
0.4848484848484846
 40
0.4848484848484846
 40
0.5151515151515149
 40
0.5151515151515149
 40
0.5151515151515149
 40
0.5151515151515149
 40
0.5454545454545452
 40
0.5454545454545452
 40
0.5454545454545452
 40
0.5454545454545452
 40
0.5757575757575755
 40
0.5757575757575755
 40
0.5757575757575755
 40
0.5757575757575755
 40
0.6060606060606057
 40
0.6060606060606057
 40
0.6060606060606057
 40
0.6060606060606057
 40
0.636363636363636
 40
0.636363636363636
 40
0.636363636363636
 40
0.636363636363636
 40
0.6666666666666663
 40
0.6666666666666663
 40
0.6666666666666663
 40
0.6666666666666663
 40
0.6969696969696966
 40
0.6969696969696966
 40
0.6969696969696966
 40
0.6969696969696966
 40
0.7272727272727269
 40
0.7272727272727269
 40
0.7272727272727269
 40
0.7272727272727269
 40
0.7575757575757571
 40
0.7575757575757571
 40
0.7575757575757571
 40
0.7575757575757571
 40
0.7878787878787874
 40
0.7878787878787874
 40
0.7878787878787874
 40
0.7878787878787874
 40
0.8181818181818177
 40
0.8181818181818177
 40
0.8181818181818177
 40
0.8181818181818177
 40
0.848484848484848
 40
0.848484848484848
 40
0.848484848484848
 40
0.848484848484848
 40
0.8787878787878782
 40
0.8787878787878782
 40
0.8787878787878782
 40
0.8787878787878782
 40
0.9090909090909085
 40
0.9090909090909085
 40
0.9090909090909085
 40
0.9090909090909085
 40
0.9393939393939388
 40
0.9393939393939388
 40
0.9393939393939388
 40
0.9393939393939388
 40
0.9696969696969691
 40
0.9696969696969691
 40
0.9696969696969691
 40
0.9696969696969691
 40
1.0
 40
1.0
 40
1.0
 40
1.0
 10
-815.4987
 20
248.9289
 30
0.0
 10
-815.4987
 20
248.9289
 30
0.0
 10
-814.3959
 20
249.1025
 30
0.0
 10
-814.3959
 20
249.1025
 30
0.0
 10
-814.3959
 20
249.1025
 30
0.0
 10
-814.3345000000001
 20
248.6601
 30
0.0
 10
-814.1610000000001
 20
248.3214
 30
0.0
 10
-813.8773
 20
248.0843
 30
0.0
 10
-813.8773
 20
248.0843
 30
0.0
 10
-813.5958000000001
 20
247.8494
 30
0.0
 10
-813.2000000000001
 20
247.7309
 30
0.0
 10
-812.6899000000001
 20
247.7309
 30
0.0
 10
-812.6899000000001
 20
247.7309
 30
0.0
 10
-812.1777000000001
 20
247.7309
 30
0.0
 10
-811.7967
 20
247.8367
 30
0.0
 10
-811.5490000000001
 20
248.0441
 30
0.0
 10
-811.5490000000001
 20
248.0441
 30
0.0
 10
-811.3014000000001
 20
248.2537
 30
0.0
 10
-811.1765
 20
248.4992
 30
0.0
 10
-811.1765
 20
248.7786
 30
0.0
 10
-811.1765
 20
248.7786
 30
0.0
 10
-811.1765
 20
249.0326
 30
0.0
 10
-811.2865000000001
 20
249.2295
 30
0.0
 10
-811.5067
 20
249.3755
 30
0.0
 10
-811.5067
 20
249.3755
 30
0.0
 10
-811.6591000000001
 20
249.475
 30
0.0
 10
-812.0401000000001
 20
249.5999
 30
0.0
 10
-812.6476
 20
249.7523
 30
0.0
 10
-812.6476
 20
249.7523
 30
0.0
 10
-813.4646
 20
249.9597
 30
0.0
 10
-814.034
 20
250.1375
 30
0.0
 10
-814.3494000000001
 20
250.2899
 30
0.0
 10
-814.3494000000001
 20
250.2899
 30
0.0
 10
-814.6647
 20
250.4402
 30
0.0
 10
-814.9060000000001
 20
250.6497
 30
0.0
 10
-815.0690000000001
 20
250.9164
 30
0.0
 10
-815.0690000000001
 20
250.9164
 30
0.0
 10
-815.2320000000001
 20
251.1831
 30
0.0
 10
-815.3146
 20
251.4774
 30
0.0
 10
-815.3146
 20
251.7991
 30
0.0
 10
-815.3146
 20
251.7991
 30
0.0
 10
-815.3146
 20
252.0933
 30
0.0
 10
-815.2468
 20
252.3642
 30
0.0
 10
-815.1114
 20
252.614
 30
0.0
 10
-815.1114
 20
252.614
 30
0.0
 10
-814.9780000000001
 20
252.8659
 30
0.0
 10
-814.7939
 20
253.0733
 30
0.0
 10
-814.5631000000001
 20
253.2384
 30
0.0
 10
-814.5631000000001
 20
253.2384
 30
0.0
 10
-814.3896000000001
 20
253.3654
 30
0.0
 10
-814.1525
 20
253.4755
 30
0.0
 10
-813.8541
 20
253.5644
 30
0.0
 10
-813.8541
 20
253.5644
 30
0.0
 10
-813.5535
 20
253.6533
 30
0.0
 10
-813.2318
 20
253.6977
 30
0.0
 10
-812.8889
 20
253.6977
 30
0.0
 10
-812.8889
 20
253.6977
 30
0.0
 10
-812.3724000000001
 20
253.6977
 30
0.0
 10
-811.9194
 20
253.6215
 30
0.0
 10
-811.5278000000001
 20
253.4734
 30
0.0
 10
-811.5278000000001
 20
253.4734
 30
0.0
 10
-811.1363
 20
253.3252
 30
0.0
 10
-810.8484000000001
 20
253.1241
 30
0.0
 10
-810.6621
 20
252.8701
 30
0.0
 10
-810.6621
 20
252.8701
 30
0.0
 10
-810.4759
 20
252.614
 30
0.0
 10
-810.3489000000001
 20
252.2753
 30
0.0
 10
-810.279
 20
251.8499
 30
0.0
 10
-810.279
 20
251.8499
 30
0.0
 10
-810.279
 20
251.8499
 30
0.0
 10
-811.3691
 20
251.6996
 30
0.0
 10
-811.3691
 20
251.6996
 30
0.0
 10
-811.3691
 20
251.6996
 30
0.0
 10
-811.4199
 20
252.0383
 30
0.0
 10
-811.5638
 20
252.3029
 30
0.0
 10
-811.8009000000001
 20
252.4934
 30
0.0
 10
-811.8009000000001
 20
252.4934
 30
0.0
 10
-812.038
 20
252.6839
 30
0.0
 10
-812.3745
 20
252.7791
 30
0.0
 10
-812.8084
 20
252.7791
 30
0.0
 10
-812.8084
 20
252.7791
 30
0.0
 10
-813.3207
 20
252.7791
 30
0.0
 10
-813.6868000000001
 20
252.6944
 30
0.0
 10
-813.9049
 20
252.5251
 30
0.0
 10
-813.9049
 20
252.5251
 30
0.0
 10
-814.125
 20
252.3558
 30
0.0
 10
-814.2351
 20
252.1568
 30
0.0
 10
-814.2351
 20
251.9303
 30
0.0
 10
-814.2351
 20
251.9303
 30
0.0
 10
-814.2351
 20
251.7843
 30
0.0
 10
-814.1885000000001
 20
251.6552
 30
0.0
 10
-814.0975000000001
 20
251.5387
 30
0.0
 10
-814.0975000000001
 20
251.5387
 30
0.0
 10
-814.0065000000001
 20
251.4181
 30
0.0
 10
-813.8646
 20
251.3207
 30
0.0
 10
-813.6699
 20
251.2403
 30
0.0
 10
-813.6699
 20
251.2403
 30
0.0
 10
-813.5577000000001
 20
251.2001
 30
0.0
 10
-813.2296
 20
251.1048
 30
0.0
 10
-812.6835000000001
 20
250.9567
 30
0.0
 10
-812.6835000000001
 20
250.9567
 30
0.0
 10
-811.894
 20
250.745
 30
0.0
 10
-811.3437
 20
250.5735
 30
0.0
 10
-811.0325
 20
250.4381
 30
0.0
 10
-811.0325
 20
250.4381
 30
0.0
 10
-810.7193000000001
 20
250.3047
 30
0.0
 10
-810.4737
 20
250.1079
 30
0.0
 10
-810.2959000000001
 20
249.8518
 30
0.0
 10
-810.2959000000001
 20
249.8518
 30
0.0
 10
-810.1181
 20
249.5956
 30
0.0
 10
-810.0292000000001
 20
249.2781
 30
0.0
 10
-810.0292000000001
 20
248.8971
 30
0.0
 10
-810.0292000000001
 20
248.8971
 30
0.0
 10
-810.0292000000001
 20
248.5246
 30
0.0
 10
-810.1393000000001
 20
248.1754
 30
0.0
 10
-810.3552000000001
 20
247.8452
 30
0.0
 10
-810.3552000000001
 20
247.8452
 30
0.0
 10
-810.5732
 20
247.5171
 30
0.0
 10
-810.8865000000001
 20
247.2631
 30
0.0
 10
-811.2950000000001
 20
247.0832
 30
0.0
 10
-811.2950000000001
 20
247.0832
 30
0.0
 10
-811.7035000000001
 20
246.9032
 30
0.0
 10
-812.1671
 20
246.8143
 30
0.0
 10
-812.6835000000001
 20
246.8143
 30
0.0
 10
-812.6835000000001
 20
246.8143
 30
0.0
 10
-813.5408
 20
246.8143
 30
0.0
 10
-814.1927000000001
 20
246.9921
 30
0.0
 10
-814.6415000000001
 20
247.3477
 30
0.0
 10
-814.6415000000001
 20
247.3477
 30
0.0
 10
-815.0902000000001
 20
247.7033
 30
0.0
 10
-815.3759
 20
248.2304
 30
0.0
 10
-815.4987
 20
248.9289
 30
0.0
  0
SPLINE
  5
4C
330
1F
100
AcDbEntity
  8
Layer 1
 62
   250
100
AcDbSpline
210
0.0
220
0.0
230
1.0
 70
    11
 71
     3
 72
    72
 73
    68
 74
     0
 42
0.0000000001
 43
0.0000000001
 40
0.0
 40
0.0
 40
0.0
 40
0.0
 40
0.0588235294117647
 40
0.0588235294117647
 40
0.0588235294117647
 40
0.0588235294117647
 40
0.1176470588235294
 40
0.1176470588235294
 40
0.1176470588235294
 40
0.1176470588235294
 40
0.1764705882352941
 40
0.1764705882352941
 40
0.1764705882352941
 40
0.1764705882352941
 40
0.2352941176470588
 40
0.2352941176470588
 40
0.2352941176470588
 40
0.2352941176470588
 40
0.2941176470588235
 40
0.2941176470588235
 40
0.2941176470588235
 40
0.2941176470588235
 40
0.3529411764705883
 40
0.3529411764705883
 40
0.3529411764705883
 40
0.3529411764705883
 40
0.411764705882353
 40
0.411764705882353
 40
0.411764705882353
 40
0.411764705882353
 40
0.4705882352941177
 40
0.4705882352941177
 40
0.4705882352941177
 40
0.4705882352941177
 40
0.5294117647058824
 40
0.5294117647058824
 40
0.5294117647058824
 40
0.5294117647058824
 40
0.5882352941176471
 40
0.5882352941176471
 40
0.5882352941176471
 40
0.5882352941176471
 40
0.6470588235294118
 40
0.6470588235294118
 40
0.6470588235294118
 40
0.6470588235294118
 40
0.7058823529411765
 40
0.7058823529411765
 40
0.7058823529411765
 40
0.7058823529411765
 40
0.7647058823529412
 40
0.7647058823529412
 40
0.7647058823529412
 40
0.7647058823529412
 40
0.823529411764706
 40
0.823529411764706
 40
0.823529411764706
 40
0.823529411764706
 40
0.8823529411764707
 40
0.8823529411764707
 40
0.8823529411764707
 40
0.8823529411764707
 40
0.9411764705882354
 40
0.9411764705882354
 40
0.9411764705882354
 40
0.9411764705882354
 40
1.0
 40
1.0
 40
1.0
 40
1.0
 10
-808.7021000000001
 20
246.9625
 30
0.0
 10
-808.7021000000001
 20
246.9625
 30
0.0
 10
-808.7021000000001
 20
256.0536
 30
0.0
 10
-808.7021000000001
 20
256.0536
 30
0.0
 10
-808.7021000000001
 20
256.0536
 30
0.0
 10
-808.7021000000001
 20
256.0536
 30
0.0
 10
-807.5866000000001
 20
256.0536
 30
0.0
 10
-807.5866000000001
 20
256.0536
 30
0.0
 10
-807.5866000000001
 20
256.0536
 30
0.0
 10
-807.5866000000001
 20
256.0536
 30
0.0
 10
-807.5866000000001
 20
252.7918
 30
0.0
 10
-807.5866000000001
 20
252.7918
 30
0.0
 10
-807.5866000000001
 20
252.7918
 30
0.0
 10
-807.0659000000001
 20
253.3951
 30
0.0
 10
-806.4076
 20
253.6977
 30
0.0
 10
-805.6139000000001
 20
253.6977
 30
0.0
 10
-805.6139000000001
 20
253.6977
 30
0.0
 10
-805.1270000000001
 20
253.6977
 30
0.0
 10
-804.7037
 20
253.6004
 30
0.0
 10
-804.3439000000001
 20
253.4078
 30
0.0
 10
-804.3439000000001
 20
253.4078
 30
0.0
 10
-803.984
 20
253.2173
 30
0.0
 10
-803.7258000000001
 20
252.9506
 30
0.0
 10
-803.5713000000001
 20
252.6119
 30
0.0
 10
-803.5713000000001
 20
252.6119
 30
0.0
 10
-803.4168000000001
 20
252.2732
 30
0.0
 10
-803.3385000000001
 20
251.78
 30
0.0
 10
-803.3385000000001
 20
251.1366
 30
0.0
 10
-803.3385000000001
 20
251.1366
 30
0.0
 10
-803.3385000000001
 20
251.1366
 30
0.0
 10
-803.3385000000001
 20
246.9625
 30
0.0
 10
-803.3385000000001
 20
246.9625
 30
0.0
 10
-803.3385000000001
 20
246.9625
 30
0.0
 10
-803.3385000000001
 20
246.9625
 30
0.0
 10
-804.4561
 20
246.9625
 30
0.0
 10
-804.4561
 20
246.9625
 30
0.0
 10
-804.4561
 20
246.9625
 30
0.0
 10
-804.4561
 20
246.9625
 30
0.0
 10
-804.4561
 20
251.1366
 30
0.0
 10
-804.4561
 20
251.1366
 30
0.0
 10
-804.4561
 20
251.1366
 30
0.0
 10
-804.4561
 20
251.6933
 30
0.0
 10
-804.5767000000001
 20
252.0997
 30
0.0
 10
-804.818
 20
252.3537
 30
0.0
 10
-804.818
 20
252.3537
 30
0.0
 10
-805.0593
 20
252.6077
 30
0.0
 10
-805.4022
 20
252.7368
 30
0.0
 10
-805.8446
 20
252.7368
 30
0.0
 10
-805.8446
 20
252.7368
 30
0.0
 10
-806.1748
 20
252.7368
 30
0.0
 10
-806.4859
 20
252.65
 30
0.0
 10
-806.778
 20
252.4785
 30
0.0
 10
-806.778
 20
252.4785
 30
0.0
 10
-807.0701
 20
252.3071
 30
0.0
 10
-807.2776
 20
252.0743
 30
0.0
 10
-807.4003
 20
251.78
 30
0.0
 10
-807.4003
 20
251.78
 30
0.0
 10
-807.5252
 20
251.4879
 30
0.0
 10
-807.5866000000001
 20
251.0815
 30
0.0
 10
-807.5866000000001
 20
250.5651
 30
0.0
 10
-807.5866000000001
 20
250.5651
 30
0.0
 10
-807.5866000000001
 20
250.5651
 30
0.0
 10
-807.5866000000001
 20
246.9625
 30
0.0
 10
-807.5866000000001
 20
246.9625
 30
0.0
 10
-807.5866000000001
 20
246.9625
 30
0.0
 10
-807.5866000000001
 20
246.9625
 30
0.0
 10
-808.7021000000001
 20
246.9625
 30
0.0
 10
-808.7021000000001
 20
246.9625
 30
0.0
  0
SPLINE
  5
4D
330
1F
100
AcDbEntity
  8
Layer 1
 62
   250
100
AcDbSpline
210
0.0
220
0.0
230
1.0
 70
    11
 71
     3
 72
    76
 73
    72
 74
     0
 42
0.0000000001
 43
0.0000000001
 40
0.0
 40
0.0
 40
0.0
 40
0.0
 40
0.0555555555555556
 40
0.0555555555555556
 40
0.0555555555555556
 40
0.0555555555555556
 40
0.1111111111111111
 40
0.1111111111111111
 40
0.1111111111111111
 40
0.1111111111111111
 40
0.1666666666666667
 40
0.1666666666666667
 40
0.1666666666666667
 40
0.1666666666666667
 40
0.2222222222222222
 40
0.2222222222222222
 40
0.2222222222222222
 40
0.2222222222222222
 40
0.2777777777777778
 40
0.2777777777777778
 40
0.2777777777777778
 40
0.2777777777777778
 40
0.3333333333333334
 40
0.3333333333333334
 40
0.3333333333333334
 40
0.3333333333333334
 40
0.388888888888889
 40
0.388888888888889
 40
0.388888888888889
 40
0.388888888888889
 40
0.4444444444444445
 40
0.4444444444444445
 40
0.4444444444444445
 40
0.4444444444444445
 40
0.5000000000000001
 40
0.5000000000000001
 40
0.5000000000000001
 40
0.5000000000000001
 40
0.5555555555555557
 40
0.5555555555555557
 40
0.5555555555555557
 40
0.5555555555555557
 40
0.6111111111111113
 40
0.6111111111111113
 40
0.6111111111111113
 40
0.6111111111111113
 40
0.6666666666666669
 40
0.6666666666666669
 40
0.6666666666666669
 40
0.6666666666666669
 40
0.7222222222222224
 40
0.7222222222222224
 40
0.7222222222222224
 40
0.7222222222222224
 40
0.777777777777778
 40
0.777777777777778
 40
0.777777777777778
 40
0.777777777777778
 40
0.8333333333333336
 40
0.8333333333333336
 40
0.8333333333333336
 40
0.8333333333333336
 40
0.8888888888888892
 40
0.8888888888888892
 40
0.8888888888888892
 40
0.8888888888888892
 40
0.9444444444444448
 40
0.9444444444444448
 40
0.9444444444444448
 40
0.9444444444444448
 40
1.0
 40
1.0
 40
1.0
 40
1.0
 10
-796.8953
 20
246.9625
 30
0.0
 10
-796.8953
 20
246.9625
 30
0.0
 10
-798.9104
 20
253.5475
 30
0.0
 10
-798.9104
 20
253.5475
 30
0.0
 10
-798.9104
 20
253.5475
 30
0.0
 10
-798.9104
 20
253.5475
 30
0.0
 10
-797.7568
 20
253.5475
 30
0.0
 10
-797.7568
 20
253.5475
 30
0.0
 10
-797.7568
 20
253.5475
 30
0.0
 10
-797.7568
 20
253.5475
 30
0.0
 10
-796.7091
 20
249.7459
 30
0.0
 10
-796.7091
 20
249.7459
 30
0.0
 10
-796.7091
 20
249.7459
 30
0.0
 10
-796.7091
 20
249.7459
 30
0.0
 10
-796.3196
 20
248.332
 30
0.0
 10
-796.3196
 20
248.332
 30
0.0
 10
-796.3196
 20
248.332
 30
0.0
 10
-796.3027000000001
 20
248.404
 30
0.0
 10
-796.1884
 20
248.8569
 30
0.0
 10
-795.9788000000001
 20
249.6909
 30
0.0
 10
-795.9788000000001
 20
249.6909
 30
0.0
 10
-795.9788000000001
 20
249.6909
 30
0.0
 10
-794.9311
 20
253.5475
 30
0.0
 10
-794.9311
 20
253.5475
 30
0.0
 10
-794.9311
 20
253.5475
 30
0.0
 10
-794.9311
 20
253.5475
 30
0.0
 10
-793.7838
 20
253.5475
 30
0.0
 10
-793.7838
 20
253.5475
 30
0.0
 10
-793.7838
 20
253.5475
 30
0.0
 10
-793.7838
 20
253.5475
 30
0.0
 10
-792.7975
 20
249.729
 30
0.0
 10
-792.7975
 20
249.729
 30
0.0
 10
-792.7975
 20
249.729
 30
0.0
 10
-792.7975
 20
249.729
 30
0.0
 10
-792.4673
 20
248.4696
 30
0.0
 10
-792.4673
 20
248.4696
 30
0.0
 10
-792.4673
 20
248.4696
 30
0.0
 10
-792.4673
 20
248.4696
 30
0.0
 10
-792.0905
 20
249.7417
 30
0.0
 10
-792.0905
 20
249.7417
 30
0.0
 10
-792.0905
 20
249.7417
 30
0.0
 10
-792.0905
 20
249.7417
 30
0.0
 10
-790.9623
 20
253.5475
 30
0.0
 10
-790.9623
 20
253.5475
 30
0.0
 10
-790.9623
 20
253.5475
 30
0.0
 10
-790.9623
 20
253.5475
 30
0.0
 10
-789.8765000000001
 20
253.5475
 30
0.0
 10
-789.8765000000001
 20
253.5475
 30
0.0
 10
-789.8765000000001
 20
253.5475
 30
0.0
 10
-789.8765000000001
 20
253.5475
 30
0.0
 10
-791.936
 20
246.9625
 30
0.0
 10
-791.936
 20
246.9625
 30
0.0
 10
-791.936
 20
246.9625
 30
0.0
 10
-791.936
 20
246.9625
 30
0.0
 10
-793.0938
 20
246.9625
 30
0.0
 10
-793.0938
 20
246.9625
 30
0.0
 10
-793.0938
 20
246.9625
 30
0.0
 10
-793.0938
 20
246.9625
 30
0.0
 10
-794.1415000000001
 20
250.9059
 30
0.0
 10
-794.1415000000001
 20
250.9059
 30
0.0
 10
-794.1415000000001
 20
250.9059
 30
0.0
 10
-794.1415000000001
 20
250.9059
 30
0.0
 10
-794.3977
 20
252.0298
 30
0.0
 10
-794.3977
 20
252.0298
 30
0.0
 10
-794.3977
 20
252.0298
 30
0.0
 10
-794.3977
 20
252.0298
 30
0.0
 10
-795.729
 20
246.9625
 30
0.0
 10
-795.729
 20
246.9625
 30
0.0
 10
-795.729
 20
246.9625
 30
0.0
 10
-795.729
 20
246.9625
 30
0.0
 10
-796.8953
 20
246.9625
 30
0.0
 10
-796.8953
 20
246.9625
 30
0.0
  0
SPLINE
  5
4E
330
1F
100
AcDbEntity
  8
Layer 1
 62
   250
100
AcDbSpline
210
0.0
220
0.0
230
1.0
 70
    11
 71
     3
 72
    20
 73
    16
 74
     0
 42
0.0000000001
 43
0.0000000001
 40
0.0
 40
0.0
 40
0.0
 40
0.0
 40
0.25
 40
0.25
 40
0.25
 40
0.25
 40
0.5
 40
0.5
 40
0.5
 40
0.5
 40
0.75
 40
0.75
 40
0.75
 40
0.75
 40
1.0
 40
1.0
 40
1.0
 40
1.0
 10
-788.9346000000001
 20
254.7688
 30
0.0
 10
-788.9346000000001
 20
254.7688
 30
0.0
 10
-788.9346000000001
 20
256.0536
 30
0.0
 10
-788.9346000000001
 20
256.0536
 30
0.0
 10
-788.9346000000001
 20
256.0536
 30
0.0
 10
-788.9346000000001
 20
256.0536
 30
0.0
 10
-787.817
 20
256.0536
 30
0.0
 10
-787.817
 20
256.0536
 30
0.0
 10
-787.817
 20
256.0536
 30
0.0
 10
-787.817
 20
256.0536
 30
0.0
 10
-787.817
 20
254.7688
 30
0.0
 10
-787.817
 20
254.7688
 30
0.0
 10
-787.817
 20
254.7688
 30
0.0
 10
-787.817
 20
254.7688
 30
0.0
 10
-788.9346000000001
 20
254.7688
 30
0.0
 10
-788.9346000000001
 20
254.7688
 30
0.0
  0
SPLINE
  5
4F
330
1F
100
AcDbEntity
  8
Layer 1
 62
   250
100
AcDbSpline
210
0.0
220
0.0
230
1.0
 70
    11
 71
     3
 72
    20
 73
    16
 74
     0
 42
0.0000000001
 43
0.0000000001
 40
0.0
 40
0.0
 40
0.0
 40
0.0
 40
0.25
 40
0.25
 40
0.25
 40
0.25
 40
0.5
 40
0.5
 40
0.5
 40
0.5
 40
0.75
 40
0.75
 40
0.75
 40
0.75
 40
1.0
 40
1.0
 40
1.0
 40
1.0
 10
-788.9346000000001
 20
246.9625
 30
0.0
 10
-788.9346000000001
 20
246.9625
 30
0.0
 10
-788.9346000000001
 20
253.5475
 30
0.0
 10
-788.9346000000001
 20
253.5475
 30
0.0
 10
-788.9346000000001
 20
253.5475
 30
0.0
 10
-788.9346000000001
 20
253.5475
 30
0.0
 10
-787.817
 20
253.5475
 30
0.0
 10
-787.817
 20
253.5475
 30
0.0
 10
-787.817
 20
253.5475
 30
0.0
 10
-787.817
 20
253.5475
 30
0.0
 10
-787.817
 20
246.9625
 30
0.0
 10
-787.817
 20
246.9625
 30
0.0
 10
-787.817
 20
246.9625
 30
0.0
 10
-787.817
 20
246.9625
 30
0.0
 10
-788.9346000000001
 20
246.9625
 30
0.0
 10
-788.9346000000001
 20
246.9625
 30
0.0
  0
SPLINE
  5
50
330
1F
100
AcDbEntity
  8
Layer 1
 62
   250
100
AcDbSpline
210
0.0
220
0.0
230
1.0
 70
    11
 71
     3
 72
    84
 73
    80
 74
     0
 42
0.0000000001
 43
0.0000000001
 40
0.0
 40
0.0
 40
0.0
 40
0.0
 40
0.05
 40
0.05
 40
0.05
 40
0.05
 40
0.1
 40
0.1
 40
0.1
 40
0.1
 40
0.15
 40
0.15
 40
0.15
 40
0.15
 40
0.2
 40
0.2
 40
0.2
 40
0.2
 40
0.25
 40
0.25
 40
0.25
 40
0.25
 40
0.3
 40
0.3
 40
0.3
 40
0.3
 40
0.35
 40
0.35
 40
0.35
 40
0.35
 40
0.4
 40
0.4
 40
0.4
 40
0.4
 40
0.45
 40
0.45
 40
0.45
 40
0.45
 40
0.4999999999999999
 40
0.4999999999999999
 40
0.4999999999999999
 40
0.4999999999999999
 40
0.5499999999999999
 40
0.5499999999999999
 40
0.5499999999999999
 40
0.5499999999999999
 40
0.6
 40
0.6
 40
0.6
 40
0.6
 40
0.65
 40
0.65
 40
0.65
 40
0.65
 40
0.7000000000000001
 40
0.7000000000000001
 40
0.7000000000000001
 40
0.7000000000000001
 40
0.7500000000000001
 40
0.7500000000000001
 40
0.7500000000000001
 40
0.7500000000000001
 40
0.8000000000000002
 40
0.8000000000000002
 40
0.8000000000000002
 40
0.8000000000000002
 40
0.8500000000000002
 40
0.8500000000000002
 40
0.8500000000000002
 40
0.8500000000000002
 40
0.9000000000000002
 40
0.9000000000000002
 40
0.9000000000000002
 40
0.9000000000000002
 40
0.9500000000000003
 40
0.9500000000000003
 40
0.9500000000000003
 40
0.9500000000000003
 40
1.0
 40
1.0
 40
1.0
 40
1.0
 10
-783.681
 20
247.9616
 30
0.0
 10
-783.681
 20
247.9616
 30
0.0
 10
-783.5201000000001
 20
246.9752
 30
0.0
 10
-783.5201000000001
 20
246.9752
 30
0.0
 10
-783.5201000000001
 20
246.9752
 30
0.0
 10
-783.8334
 20
246.9096
 30
0.0
 10
-784.1149
 20
246.8757
 30
0.0
 10
-784.3626
 20
246.8757
 30
0.0
 10
-784.3626
 20
246.8757
 30
0.0
 10
-784.769
 20
246.8757
 30
0.0
 10
-785.0822000000001
 20
246.9392
 30
0.0
 10
-785.3066
 20
247.0683
 30
0.0
 10
-785.3066
 20
247.0683
 30
0.0
 10
-785.5289
 20
247.1953
 30
0.0
 10
-785.6855000000001
 20
247.3647
 30
0.0
 10
-785.7765000000001
 20
247.5742
 30
0.0
 10
-785.7765000000001
 20
247.5742
 30
0.0
 10
-785.8675000000001
 20
247.7817
 30
0.0
 10
-785.9141000000001
 20
248.2219
 30
0.0
 10
-785.9141000000001
 20
248.8908
 30
0.0
 10
-785.9141000000001
 20
248.8908
 30
0.0
 10
-785.9141000000001
 20
248.8908
 30
0.0
 10
-785.9141000000001
 20
252.6796
 30
0.0
 10
-785.9141000000001
 20
252.6796
 30
0.0
 10
-785.9141000000001
 20
252.6796
 30
0.0
 10
-785.9141000000001
 20
252.6796
 30
0.0
 10
-786.7332
 20
252.6796
 30
0.0
 10
-786.7332
 20
252.6796
 30
0.0
 10
-786.7332
 20
252.6796
 30
0.0
 10
-786.7332
 20
252.6796
 30
0.0
 10
-786.7332
 20
253.5475
 30
0.0
 10
-786.7332
 20
253.5475
 30
0.0
 10
-786.7332
 20
253.5475
 30
0.0
 10
-786.7332
 20
253.5475
 30
0.0
 10
-785.9141000000001
 20
253.5475
 30
0.0
 10
-785.9141000000001
 20
253.5475
 30
0.0
 10
-785.9141000000001
 20
253.5475
 30
0.0
 10
-785.9141000000001
 20
253.5475
 30
0.0
 10
-785.9141000000001
 20
255.1794
 30
0.0
 10
-785.9141000000001
 20
255.1794
 30
0.0
 10
-785.9141000000001
 20
255.1794
 30
0.0
 10
-785.9141000000001
 20
255.1794
 30
0.0
 10
-784.8028000000001
 20
255.8483
 30
0.0
 10
-784.8028000000001
 20
255.8483
 30
0.0
 10
-784.8028000000001
 20
255.8483
 30
0.0
 10
-784.8028000000001
 20
255.8483
 30
0.0
 10
-784.8028000000001
 20
253.5475
 30
0.0
 10
-784.8028000000001
 20
253.5475
 30
0.0
 10
-784.8028000000001
 20
253.5475
 30
0.0
 10
-784.8028000000001
 20
253.5475
 30
0.0
 10
-783.681
 20
253.5475
 30
0.0
 10
-783.681
 20
253.5475
 30
0.0
 10
-783.681
 20
253.5475
 30
0.0
 10
-783.681
 20
253.5475
 30
0.0
 10
-783.681
 20
252.6796
 30
0.0
 10
-783.681
 20
252.6796
 30
0.0
 10
-783.681
 20
252.6796
 30
0.0
 10
-783.681
 20
252.6796
 30
0.0
 10
-784.8028000000001
 20
252.6796
 30
0.0
 10
-784.8028000000001
 20
252.6796
 30
0.0
 10
-784.8028000000001
 20
252.6796
 30
0.0
 10
-784.8028000000001
 20
252.6796
 30
0.0
 10
-784.8028000000001
 20
248.8294
 30
0.0
 10
-784.8028000000001
 20
248.8294
 30
0.0
 10
-784.8028000000001
 20
248.8294
 30
0.0
 10
-784.8028000000001
 20
248.5098
 30
0.0
 10
-784.7838
 20
248.3066
 30
0.0
 10
-784.7457000000001
 20
248.2156
 30
0.0
 10
-784.7457000000001
 20
248.2156
 30
0.0
 10
-784.7055
 20
248.1246
 30
0.0
 10
-784.6420000000001
 20
248.0526
 30
0.0
 10
-784.5531000000001
 20
247.9976
 30
0.0
 10
-784.5531000000001
 20
247.9976
 30
0.0
 10
-784.4642
 20
247.9446
 30
0.0
 10
-784.3372000000001
 20
247.9171
 30
0.0
 10
-784.1721
 20
247.9171
 30
0.0
 10
-784.1721
 20
247.9171
 30
0.0
 10
-784.0472000000001
 20
247.9171
 30
0.0
 10
-783.8842000000001
 20
247.9319
 30
0.0
 10
-783.681
 20
247.9616
 30
0.0
  0
SPLINE
  5
51
330
1F
100
AcDbEntity
  8
Layer 1
 62
   250
100
AcDbSpline
210
0.0
220
0.0
230
1.0
 70
    11
 71
     3
 72
    72
 73
    68
 74
     0
 42
0.0000000001
 43
0.0000000001
 40
0.0
 40
0.0
 40
0.0
 40
0.0
 40
0.0588235294117647
 40
0.0588235294117647
 40
0.0588235294117647
 40
0.0588235294117647
 40
0.1176470588235294
 40
0.1176470588235294
 40
0.1176470588235294
 40
0.1176470588235294
 40
0.1764705882352941
 40
0.1764705882352941
 40
0.1764705882352941
 40
0.1764705882352941
 40
0.2352941176470588
 40
0.2352941176470588
 40
0.2352941176470588
 40
0.2352941176470588
 40
0.2941176470588235
 40
0.2941176470588235
 40
0.2941176470588235
 40
0.2941176470588235
 40
0.3529411764705883
 40
0.3529411764705883
 40
0.3529411764705883
 40
0.3529411764705883
 40
0.411764705882353
 40
0.411764705882353
 40
0.411764705882353
 40
0.411764705882353
 40
0.4705882352941177
 40
0.4705882352941177
 40
0.4705882352941177
 40
0.4705882352941177
 40
0.5294117647058824
 40
0.5294117647058824
 40
0.5294117647058824
 40
0.5294117647058824
 40
0.5882352941176471
 40
0.5882352941176471
 40
0.5882352941176471
 40
0.5882352941176471
 40
0.6470588235294118
 40
0.6470588235294118
 40
0.6470588235294118
 40
0.6470588235294118
 40
0.7058823529411765
 40
0.7058823529411765
 40
0.7058823529411765
 40
0.7058823529411765
 40
0.7647058823529412
 40
0.7647058823529412
 40
0.7647058823529412
 40
0.7647058823529412
 40
0.823529411764706
 40
0.823529411764706
 40
0.823529411764706
 40
0.823529411764706
 40
0.8823529411764707
 40
0.8823529411764707
 40
0.8823529411764707
 40
0.8823529411764707
 40
0.9411764705882354
 40
0.9411764705882354
 40
0.9411764705882354
 40
0.9411764705882354
 40
1.0
 40
1.0
 40
1.0
 40
1.0
 10
-782.5888
 20
246.9625
 30
0.0
 10
-782.5888
 20
246.9625
 30
0.0
 10
-782.5888
 20
256.0536
 30
0.0
 10
-782.5888
 20
256.0536
 30
0.0
 10
-782.5888
 20
256.0536
 30
0.0
 10
-782.5888
 20
256.0536
 30
0.0
 10
-781.4733
 20
256.0536
 30
0.0
 10
-781.4733
 20
256.0536
 30
0.0
 10
-781.4733
 20
256.0536
 30
0.0
 10
-781.4733
 20
256.0536
 30
0.0
 10
-781.4733
 20
252.7918
 30
0.0
 10
-781.4733
 20
252.7918
 30
0.0
 10
-781.4733
 20
252.7918
 30
0.0
 10
-780.9526000000001
 20
253.3951
 30
0.0
 10
-780.2943
 20
253.6977
 30
0.0
 10
-779.5006000000001
 20
253.6977
 30
0.0
 10
-779.5006000000001
 20
253.6977
 30
0.0
 10
-779.0137000000001
 20
253.6977
 30
0.0
 10
-778.5904000000001
 20
253.6004
 30
0.0
 10
-778.2306
 20
253.4078
 30
0.0
 10
-778.2306
 20
253.4078
 30
0.0
 10
-777.8707000000001
 20
253.2173
 30
0.0
 10
-777.6125000000001
 20
252.9506
 30
0.0
 10
-777.4580000000001
 20
252.6119
 30
0.0
 10
-777.4580000000001
 20
252.6119
 30
0.0
 10
-777.3035
 20
252.2732
 30
0.0
 10
-777.2252000000001
 20
251.78
 30
0.0
 10
-777.2252000000001
 20
251.1366
 30
0.0
 10
-777.2252000000001
 20
251.1366
 30
0.0
 10
-777.2252000000001
 20
251.1366
 30
0.0
 10
-777.2252000000001
 20
246.9625
 30
0.0
 10
-777.2252000000001
 20
246.9625
 30
0.0
 10
-777.2252000000001
 20
246.9625
 30
0.0
 10
-777.2252000000001
 20
246.9625
 30
0.0
 10
-778.3428
 20
246.9625
 30
0.0
 10
-778.3428
 20
246.9625
 30
0.0
 10
-778.3428
 20
246.9625
 30
0.0
 10
-778.3428
 20
246.9625
 30
0.0
 10
-778.3428
 20
251.1366
 30
0.0
 10
-778.3428
 20
251.1366
 30
0.0
 10
-778.3428
 20
251.1366
 30
0.0
 10
-778.3428
 20
251.6933
 30
0.0
 10
-778.4634000000001
 20
252.0997
 30
0.0
 10
-778.7047
 20
252.3537
 30
0.0
 10
-778.7047
 20
252.3537
 30
0.0
 10
-778.946
 20
252.6077
 30
0.0
 10
-779.2889
 20
252.7368
 30
0.0
 10
-779.7313
 20
252.7368
 30
0.0
 10
-779.7313
 20
252.7368
 30
0.0
 10
-780.0615
 20
252.7368
 30
0.0
 10
-780.3726
 20
252.65
 30
0.0
 10
-780.6647
 20
252.4785
 30
0.0
 10
-780.6647
 20
252.4785
 30
0.0
 10
-780.9568
 20
252.3071
 30
0.0
 10
-781.1643
 20
252.0743
 30
0.0
 10
-781.287
 20
251.78
 30
0.0
 10
-781.287
 20
251.78
 30
0.0
 10
-781.4119000000001
 20
251.4879
 30
0.0
 10
-781.4733
 20
251.0815
 30
0.0
 10
-781.4733
 20
250.5651
 30
0.0
 10
-781.4733
 20
250.5651
 30
0.0
 10
-781.4733
 20
250.5651
 30
0.0
 10
-781.4733
 20
246.9625
 30
0.0
 10
-781.4733
 20
246.9625
 30
0.0
 10
-781.4733
 20
246.9625
 30
0.0
 10
-781.4733
 20
246.9625
 30
0.0
 10
-782.5888
 20
246.9625
 30
0.0
 10
-782.5888
 20
246.9625
 30
0.0
  0
SPLINE
  5
52
330
1F
100
AcDbEntity
  8
Layer 1
 62
   250
100
AcDbSpline
210
0.0
220
0.0
230
1.0
 70
    11
 71
     3
 72
    56
 73
    52
 74
     0
 42
0.0000000001
 43
0.0000000001
 40
0.0
 40
0.0
 40
0.0
 40
0.0
 40
0.0769230769230769
 40
0.0769230769230769
 40
0.0769230769230769
 40
0.0769230769230769
 40
0.1538461538461539
 40
0.1538461538461539
 40
0.1538461538461539
 40
0.1538461538461539
 40
0.2307692307692308
 40
0.2307692307692308
 40
0.2307692307692308
 40
0.2307692307692308
 40
0.3076923076923077
 40
0.3076923076923077
 40
0.3076923076923077
 40
0.3076923076923077
 40
0.3846153846153846
 40
0.3846153846153846
 40
0.3846153846153846
 40
0.3846153846153846
 40
0.4615384615384616
 40
0.4615384615384616
 40
0.4615384615384616
 40
0.4615384615384616
 40
0.5384615384615386
 40
0.5384615384615386
 40
0.5384615384615386
 40
0.5384615384615386
 40
0.6153846153846154
 40
0.6153846153846154
 40
0.6153846153846154
 40
0.6153846153846154
 40
0.6923076923076923
 40
0.6923076923076923
 40
0.6923076923076923
 40
0.6923076923076923
 40
0.7692307692307692
 40
0.7692307692307692
 40
0.7692307692307692
 40
0.7692307692307692
 40
0.846153846153846
 40
0.846153846153846
 40
0.846153846153846
 40
0.846153846153846
 40
0.9230769230769229
 40
0.9230769230769229
 40
0.9230769230769229
 40
0.9230769230769229
 40
1.0
 40
1.0
 40
1.0
 40
1.0
 10
-770.9683
 20
246.9625
 30
0.0
 10
-770.9683
 20
246.9625
 30
0.0
 10
-772.0033000000001
 20
246.9625
 30
0.0
 10
-772.0033000000001
 20
246.9625
 30
0.0
 10
-772.0033000000001
 20
246.9625
 30
0.0
 10
-772.0033000000001
 20
246.9625
 30
0.0
 10
-772.0033000000001
 20
256.0536
 30
0.0
 10
-772.0033000000001
 20
256.0536
 30
0.0
 10
-772.0033000000001
 20
256.0536
 30
0.0
 10
-772.0033000000001
 20
256.0536
 30
0.0
 10
-770.8879000000001
 20
256.0536
 30
0.0
 10
-770.8879000000001
 20
256.0536
 30
0.0
 10
-770.8879000000001
 20
256.0536
 30
0.0
 10
-770.8879000000001
 20
256.0536
 30
0.0
 10
-770.8879000000001
 20
252.8109
 30
0.0
 10
-770.8879000000001
 20
252.8109
 30
0.0
 10
-770.8879000000001
 20
252.8109
 30
0.0
 10
-770.4158
 20
253.4014
 30
0.0
 10
-769.8147
 20
253.6977
 30
0.0
 10
-769.0845000000001
 20
253.6977
 30
0.0
 10
-769.0845000000001
 20
253.6977
 30
0.0
 10
-768.6781000000001
 20
253.6977
 30
0.0
 10
-768.2949
 20
253.6152
 30
0.0
 10
-767.933
 20
253.4522
 30
0.0
 10
-767.933
 20
253.4522
 30
0.0
 10
-767.571
 20
253.2892
 30
0.0
 10
-767.2747000000001
 20
253.0585
 30
0.0
 10
-767.0398
 20
252.7643
 30
0.0
 10
-767.0398
 20
252.7643
 30
0.0
 10
-766.8069
 20
252.468
 30
0.0
 10
-766.6228
 20
252.1124
 30
0.0
 10
-766.4915000000001
 20
251.6933
 30
0.0
 10
-766.4915000000001
 20
251.6933
 30
0.0
 10
-766.3582
 20
251.2763
 30
0.0
 10
-766.2926
 20
250.8297
 30
0.0
 10
-766.2926
 20
250.3555
 30
0.0
 10
-766.2926
 20
250.3555
 30
0.0
 10
-766.2926
 20
249.2252
 30
0.0
 10
-766.572
 20
248.3532
 30
0.0
 10
-767.1308
 20
247.7372
 30
0.0
 10
-767.1308
 20
247.7372
 30
0.0
 10
-767.6875
 20
247.1213
 30
0.0
 10
-768.3584000000001
 20
246.8143
 30
0.0
 10
-769.1395
 20
246.8143
 30
0.0
 10
-769.1395
 20
246.8143
 30
0.0
 10
-769.9163000000001
 20
246.8143
 30
0.0
 10
-770.5259000000001
 20
247.1382
 30
0.0
 10
-770.9683
 20
247.788
 30
0.0
 10
-770.9683
 20
247.788
 30
0.0
 10
-770.9683
 20
247.788
 30
0.0
 10
-770.9683
 20
246.9625
 30
0.0
 10
-770.9683
 20
246.9625
 30
0.0
  0
SPLINE
  5
53
330
1F
100
AcDbEntity
  8
Layer 1
 62
   250
100
AcDbSpline
210
0.0
220
0.0
230
1.0
 70
    11
 71
     3
 72
    36
 73
    32
 74
     0
 42
0.0000000001
 43
0.0000000001
 40
0.0
 40
0.0
 40
0.0
 40
0.0
 40
0.125
 40
0.125
 40
0.125
 40
0.125
 40
0.25
 40
0.25
 40
0.25
 40
0.25
 40
0.375
 40
0.375
 40
0.375
 40
0.375
 40
0.5
 40
0.5
 40
0.5
 40
0.5
 40
0.625
 40
0.625
 40
0.625
 40
0.625
 40
0.75
 40
0.75
 40
0.75
 40
0.75
 40
0.875
 40
0.875
 40
0.875
 40
0.875
 40
1.0
 40
1.0
 40
1.0
 40
1.0
 10
-770.981
 20
250.3047
 30
0.0
 10
-770.981
 20
249.5152
 30
0.0
 10
-770.8730000000001
 20
248.9458
 30
0.0
 10
-770.6593
 20
248.5945
 30
0.0
 10
-770.6593
 20
248.5945
 30
0.0
 10
-770.3079
 20
248.0187
 30
0.0
 10
-769.8316
 20
247.7309
 30
0.0
 10
-769.2326000000001
 20
247.7309
 30
0.0
 10
-769.2326000000001
 20
247.7309
 30
0.0
 10
-768.7437
 20
247.7309
 30
0.0
 10
-768.3225
 20
247.9425
 30
0.0
 10
-767.9669
 20
248.368
 30
0.0
 10
-767.9669
 20
248.368
 30
0.0
 10
-767.6113
 20
248.7913
 30
0.0
 10
-767.4335
 20
249.4221
 30
0.0
 10
-767.4335
 20
250.2624
 30
0.0
 10
-767.4335
 20
250.2624
 30
0.0
 10
-767.4335
 20
251.1218
 30
0.0
 10
-767.6049
 20
251.7568
 30
0.0
 10
-767.9457
 20
252.1653
 30
0.0
 10
-767.9457
 20
252.1653
 30
0.0
 10
-768.2865000000001
 20
252.5738
 30
0.0
 10
-768.6992
 20
252.7791
 30
0.0
 10
-769.1818000000001
 20
252.7791
 30
0.0
 10
-769.1818000000001
 20
252.7791
 30
0.0
 10
-769.6708
 20
252.7791
 30
0.0
 10
-770.092
 20
252.5674
 30
0.0
 10
-770.4476000000001
 20
252.1441
 30
0.0
 10
-770.4476000000001
 20
252.1441
 30
0.0
 10
-770.8032000000001
 20
251.7208
 30
0.0
 10
-770.981
 20
251.1069
 30
0.0
 10
-770.981
 20
250.3047
 30
0.0
  0
SPLINE
  5
54
330
1F
100
AcDbEntity
  8
Layer 1
 62
   250
100
AcDbSpline
210
0.0
220
0.0
230
1.0
 70
    11
 71
     3
 72
    40
 73
    36
 74
     0
 42
0.0000000001
 43
0.0000000001
 40
0.0
 40
0.0
 40
0.0
 40
0.0
 40
0.1111111111111111
 40
0.1111111111111111
 40
0.1111111111111111
 40
0.1111111111111111
 40
0.2222222222222222
 40
0.2222222222222222
 40
0.2222222222222222
 40
0.2222222222222222
 40
0.3333333333333333
 40
0.3333333333333333
 40
0.3333333333333333
 40
0.3333333333333333
 40
0.4444444444444444
 40
0.4444444444444444
 40
0.4444444444444444
 40
0.4444444444444444
 40
0.5555555555555556
 40
0.5555555555555556
 40
0.5555555555555556
 40
0.5555555555555556
 40
0.6666666666666667
 40
0.6666666666666667
 40
0.6666666666666667
 40
0.6666666666666667
 40
0.7777777777777779
 40
0.7777777777777779
 40
0.7777777777777779
 40
0.7777777777777779
 40
0.8888888888888891
 40
0.8888888888888891
 40
0.8888888888888891
 40
0.8888888888888891
 40
1.0
 40
1.0
 40
1.0
 40
1.0
 10
-765.3507000000001
 20
250.256
 30
0.0
 10
-765.3507000000001
 20
251.4752
 30
0.0
 10
-765.0120000000001
 20
252.3791
 30
0.0
 10
-764.3326000000001
 20
252.9654
 30
0.0
 10
-764.3326000000001
 20
252.9654
 30
0.0
 10
-763.7674000000001
 20
253.4522
 30
0.0
 10
-763.0774
 20
253.6977
 30
0.0
 10
-762.2625000000001
 20
253.6977
 30
0.0
 10
-762.2625000000001
 20
253.6977
 30
0.0
 10
-761.3565
 20
253.6977
 30
0.0
 10
-760.6157000000001
 20
253.4014
 30
0.0
 10
-760.0421
 20
252.8066
 30
0.0
 10
-760.0421
 20
252.8066
 30
0.0
 10
-759.4663000000001
 20
252.214
 30
0.0
 10
-759.1806
 20
251.3948
 30
0.0
 10
-759.1806
 20
250.3492
 30
0.0
 10
-759.1806
 20
250.3492
 30
0.0
 10
-759.1806
 20
249.5004
 30
0.0
 10
-759.3076000000001
 20
248.8336
 30
0.0
 10
-759.5616
 20
248.3489
 30
0.0
 10
-759.5616
 20
248.3489
 30
0.0
 10
-759.8156
 20
247.8621
 30
0.0
 10
-760.186
 20
247.4853
 30
0.0
 10
-760.6707
 20
247.2165
 30
0.0
 10
-760.6707
 20
247.2165
 30
0.0
 10
-761.1576
 20
246.9477
 30
0.0
 10
-761.6867000000001
 20
246.8143
 30
0.0
 10
-762.2625000000001
 20
246.8143
 30
0.0
 10
-762.2625000000001
 20
246.8143
 30
0.0
 10
-763.1832000000001
 20
246.8143
 30
0.0
 10
-763.9283
 20
247.1086
 30
0.0
 10
-764.4977
 20
247.7012
 30
0.0
 10
-764.4977
 20
247.7012
 30
0.0
 10
-765.067
 20
248.2918
 30
0.0
 10
-765.3507000000001
 20
249.1427
 30
0.0
 10
-765.3507000000001
 20
250.256
 30
0.0
  0
SPLINE
  5
55
330
1F
100
AcDbEntity
  8
Layer 1
 62
   250
100
AcDbSpline
210
0.0
220
0.0
230
1.0
 70
    11
 71
     3
 72
    36
 73
    32
 74
     0
 42
0.0000000001
 43
0.0000000001
 40
0.0
 40
0.0
 40
0.0
 40
0.0
 40
0.125
 40
0.125
 40
0.125
 40
0.125
 40
0.25
 40
0.25
 40
0.25
 40
0.25
 40
0.375
 40
0.375
 40
0.375
 40
0.375
 40
0.5
 40
0.5
 40
0.5
 40
0.5
 40
0.625
 40
0.625
 40
0.625
 40
0.625
 40
0.75
 40
0.75
 40
0.75
 40
0.75
 40
0.875
 40
0.875
 40
0.875
 40
0.875
 40
1.0
 40
1.0
 40
1.0
 40
1.0
 10
-764.2034
 20
250.256
 30
0.0
 10
-764.2034
 20
249.4115
 30
0.0
 10
-764.0193
 20
248.7807
 30
0.0
 10
-763.6510000000001
 20
248.3616
 30
0.0
 10
-763.6510000000001
 20
248.3616
 30
0.0
 10
-763.2827000000001
 20
247.9404
 30
0.0
 10
-762.8191000000001
 20
247.7309
 30
0.0
 10
-762.2625000000001
 20
247.7309
 30
0.0
 10
-762.2625000000001
 20
247.7309
 30
0.0
 10
-761.7079
 20
247.7309
 30
0.0
 10
-761.2465000000001
 20
247.9425
 30
0.0
 10
-760.8782
 20
248.3637
 30
0.0
 10
-760.8782
 20
248.3637
 30
0.0
 10
-760.5120000000001
 20
248.785
 30
0.0
 10
-760.3278
 20
249.4284
 30
0.0
 10
-760.3278
 20
250.292
 30
0.0
 10
-760.3278
 20
250.292
 30
0.0
 10
-760.3278
 20
251.1069
 30
0.0
 10
-760.5120000000001
 20
251.725
 30
0.0
 10
-760.8824000000001
 20
252.1441
 30
0.0
 10
-760.8824000000001
 20
252.1441
 30
0.0
 10
-761.2528000000001
 20
252.5632
 30
0.0
 10
-761.7121000000001
 20
252.7728
 30
0.0
 10
-762.2625000000001
 20
252.7728
 30
0.0
 10
-762.2625000000001
 20
252.7728
 30
0.0
 10
-762.8191000000001
 20
252.7728
 30
0.0
 10
-763.2827000000001
 20
252.5632
 30
0.0
 10
-763.6510000000001
 20
252.1462
 30
0.0
 10
-763.6510000000001
 20
252.1462
 30
0.0
 10
-764.0193
 20
251.7292
 30
0.0
 10
-764.2034
 20
251.0985
 30
0.0
 10
-764.2034
 20
250.256
 30
0.0
  0
SPLINE
  5
56
330
1F
100
AcDbEntity
  8
Layer 1
 62
   250
100
AcDbSpline
210
0.0
220
0.0
230
1.0
 70
    11
 71
     3
 72
    76
 73
    72
 74
     0
 42
0.0000000001
 43
0.0000000001
 40
0.0
 40
0.0
 40
0.0
 40
0.0
 40
0.0555555555555556
 40
0.0555555555555556
 40
0.0555555555555556
 40
0.0555555555555556
 40
0.1111111111111111
 40
0.1111111111111111
 40
0.1111111111111111
 40
0.1111111111111111
 40
0.1666666666666667
 40
0.1666666666666667
 40
0.1666666666666667
 40
0.1666666666666667
 40
0.2222222222222222
 40
0.2222222222222222
 40
0.2222222222222222
 40
0.2222222222222222
 40
0.2777777777777778
 40
0.2777777777777778
 40
0.2777777777777778
 40
0.2777777777777778
 40
0.3333333333333334
 40
0.3333333333333334
 40
0.3333333333333334
 40
0.3333333333333334
 40
0.388888888888889
 40
0.388888888888889
 40
0.388888888888889
 40
0.388888888888889
 40
0.4444444444444445
 40
0.4444444444444445
 40
0.4444444444444445
 40
0.4444444444444445
 40
0.5000000000000001
 40
0.5000000000000001
 40
0.5000000000000001
 40
0.5000000000000001
 40
0.5555555555555557
 40
0.5555555555555557
 40
0.5555555555555557
 40
0.5555555555555557
 40
0.6111111111111113
 40
0.6111111111111113
 40
0.6111111111111113
 40
0.6111111111111113
 40
0.6666666666666669
 40
0.6666666666666669
 40
0.6666666666666669
 40
0.6666666666666669
 40
0.7222222222222224
 40
0.7222222222222224
 40
0.7222222222222224
 40
0.7222222222222224
 40
0.777777777777778
 40
0.777777777777778
 40
0.777777777777778
 40
0.777777777777778
 40
0.8333333333333336
 40
0.8333333333333336
 40
0.8333333333333336
 40
0.8333333333333336
 40
0.8888888888888892
 40
0.8888888888888892
 40
0.8888888888888892
 40
0.8888888888888892
 40
0.9444444444444448
 40
0.9444444444444448
 40
0.9444444444444448
 40
0.9444444444444448
 40
1.0
 40
1.0
 40
1.0
 40
1.0
 10
-756.6554
 20
246.9625
 30
0.0
 10
-756.6554
 20
246.9625
 30
0.0
 10
-758.6705000000001
 20
253.5475
 30
0.0
 10
-758.6705000000001
 20
253.5475
 30
0.0
 10
-758.6705000000001
 20
253.5475
 30
0.0
 10
-758.6705000000001
 20
253.5475
 30
0.0
 10
-757.5169000000001
 20
253.5475
 30
0.0
 10
-757.5169000000001
 20
253.5475
 30
0.0
 10
-757.5169000000001
 20
253.5475
 30
0.0
 10
-757.5169000000001
 20
253.5475
 30
0.0
 10
-756.4692
 20
249.7459
 30
0.0
 10
-756.4692
 20
249.7459
 30
0.0
 10
-756.4692
 20
249.7459
 30
0.0
 10
-756.4692
 20
249.7459
 30
0.0
 10
-756.0797
 20
248.332
 30
0.0
 10
-756.0797
 20
248.332
 30
0.0
 10
-756.0797
 20
248.332
 30
0.0
 10
-756.0628
 20
248.404
 30
0.0
 10
-755.9485000000001
 20
248.8569
 30
0.0
 10
-755.7389000000001
 20
249.6909
 30
0.0
 10
-755.7389000000001
 20
249.6909
 30
0.0
 10
-755.7389000000001
 20
249.6909
 30
0.0
 10
-754.6912
 20
253.5475
 30
0.0
 10
-754.6912
 20
253.5475
 30
0.0
 10
-754.6912
 20
253.5475
 30
0.0
 10
-754.6912
 20
253.5475
 30
0.0
 10
-753.5439
 20
253.5475
 30
0.0
 10
-753.5439
 20
253.5475
 30
0.0
 10
-753.5439
 20
253.5475
 30
0.0
 10
-753.5439
 20
253.5475
 30
0.0
 10
-752.5576
 20
249.729
 30
0.0
 10
-752.5576
 20
249.729
 30
0.0
 10
-752.5576
 20
249.729
 30
0.0
 10
-752.5576
 20
249.729
 30
0.0
 10
-752.2274
 20
248.4696
 30
0.0
 10
-752.2274
 20
248.4696
 30
0.0
 10
-752.2274
 20
248.4696
 30
0.0
 10
-752.2274
 20
248.4696
 30
0.0
 10
-751.8506
 20
249.7417
 30
0.0
 10
-751.8506
 20
249.7417
 30
0.0
 10
-751.8506
 20
249.7417
 30
0.0
 10
-751.8506
 20
249.7417
 30
0.0
 10
-750.7224
 20
253.5475
 30
0.0
 10
-750.7224
 20
253.5475
 30
0.0
 10
-750.7224
 20
253.5475
 30
0.0
 10
-750.7224
 20
253.5475
 30
0.0
 10
-749.6366
 20
253.5475
 30
0.0
 10
-749.6366
 20
253.5475
 30
0.0
 10
-749.6366
 20
253.5475
 30
0.0
 10
-749.6366
 20
253.5475
 30
0.0
 10
-751.6961
 20
246.9625
 30
0.0
 10
-751.6961
 20
246.9625
 30
0.0
 10
-751.6961
 20
246.9625
 30
0.0
 10
-751.6961
 20
246.9625
 30
0.0
 10
-752.8539000000001
 20
246.9625
 30
0.0
 10
-752.8539000000001
 20
246.9625
 30
0.0
 10
-752.8539000000001
 20
246.9625
 30
0.0
 10
-752.8539000000001
 20
246.9625
 30
0.0
 10
-753.9016
 20
250.9059
 30
0.0
 10
-753.9016
 20
250.9059
 30
0.0
 10
-753.9016
 20
250.9059
 30
0.0
 10
-753.9016
 20
250.9059
 30
0.0
 10
-754.1578000000001
 20
252.0298
 30
0.0
 10
-754.1578000000001
 20
252.0298
 30
0.0
 10
-754.1578000000001
 20
252.0298
 30
0.0
 10
-754.1578000000001
 20
252.0298
 30
0.0
 10
-755.4891
 20
246.9625
 30
0.0
 10
-755.4891
 20
246.9625
 30
0.0
 10
-755.4891
 20
246.9625
 30
0.0
 10
-755.4891
 20
246.9625
 30
0.0
 10
-756.6554
 20
246.9625
 30
0.0
 10
-756.6554
 20
246.9625
 30
0.0
  0
SPLINE
  5
57
330
1F
100
AcDbEntity
  8
Layer 1
 62
   250
100
AcDbSpline
210
0.0
220
0.0
230
1.0
 70
    11
 71
     3
 72
    20
 73
    16
 74
     0
 42
0.0000000001
 43
0.0000000001
 40
0.0
 40
0.0
 40
0.0
 40
0.0
 40
0.25
 40
0.25
 40
0.25
 40
0.25
 40
0.5
 40
0.5
 40
0.5
 40
0.5
 40
0.75
 40
0.75
 40
0.75
 40
0.75
 40
1.0
 40
1.0
 40
1.0
 40
1.0
 10
-748.7243000000001
 20
246.9625
 30
0.0
 10
-748.7243000000001
 20
246.9625
 30
0.0
 10
-748.7243000000001
 20
256.0536
 30
0.0
 10
-748.7243000000001
 20
256.0536
 30
0.0
 10
-748.7243000000001
 20
256.0536
 30
0.0
 10
-748.7243000000001
 20
256.0536
 30
0.0
 10
-747.6088000000001
 20
256.0536
 30
0.0
 10
-747.6088000000001
 20
256.0536
 30
0.0
 10
-747.6088000000001
 20
256.0536
 30
0.0
 10
-747.6088000000001
 20
256.0536
 30
0.0
 10
-747.6088000000001
 20
246.9625
 30
0.0
 10
-747.6088000000001
 20
246.9625
 30
0.0
 10
-747.6088000000001
 20
246.9625
 30
0.0
 10
-747.6088000000001
 20
246.9625
 30
0.0
 10
-748.7243000000001
 20
246.9625
 30
0.0
 10
-748.7243000000001
 20
246.9625
 30
0.0
  0
SPLINE
  5
58
330
1F
100
AcDbEntity
  8
Layer 1
 62
   250
370
     5
100
AcDbSpline
210
0.0
220
0.0
230
1.0
 70
    11
 71
     3
 72
    32
 73
    28
 74
     0
 42
0.0000000001
 43
0.0000000001
 40
0.0
 40
0.0
 40
0.0
 40
0.0
 40
0.1428571428571429
 40
0.1428571428571429
 40
0.1428571428571429
 40
0.1428571428571429
 40
0.2857142857142857
 40
0.2857142857142857
 40
0.2857142857142857
 40
0.2857142857142857
 40
0.4285714285714286
 40
0.4285714285714286
 40
0.4285714285714286
 40
0.4285714285714286
 40
0.5714285714285714
 40
0.5714285714285714
 40
0.5714285714285714
 40
0.5714285714285714
 40
0.7142857142857142
 40
0.7142857142857142
 40
0.7142857142857142
 40
0.7142857142857142
 40
0.857142857142857
 40
0.857142857142857
 40
0.857142857142857
 40
0.857142857142857
 40
1.0
 40
1.0
 40
1.0
 40
1.0
 10
-850.6868000000001
 20
240.1176
 30
0.0
 10
-850.6868000000001
 20
240.1176
 30
0.0
 10
-850.6868000000001
 20
258.0883
 30
0.0
 10
-850.6868000000001
 20
258.0883
 30
0.0
 10
-850.6868000000001
 20
258.0883
 30
0.0
 10
-850.6868000000001
 20
258.0883
 30
0.0
 10
-729.5975000000001
 20
258.0883
 30
0.0
 10
-729.5975000000001
 20
258.0883
 30
0.0
 10
-729.5975000000001
 20
258.0883
 30
0.0
 10
-729.5975000000001
 20
258.0883
 30
0.0
 10
-729.5975000000001
 20
240.1176
 30
0.0
 10
-729.5975000000001
 20
240.1176
 30
0.0
 10
-729.5975000000001
 20
240.1176
 30
0.0
 10
-729.5975000000001
 20
240.1176
 30
0.0
 10
-799.2238
 20
240.1176
 30
0.0
 10
-799.2238
 20
240.1176
 30
0.0
 10
-799.2238
 20
240.1176
 30
0.0
 10
-799.2238
 20
240.1176
 30
0.0
 10
-880.9591
 20
232.4159
 30
0.0
 10
-880.9591
 20
232.4159
 30
0.0
 10
-880.9591
 20
232.4159
 30
0.0
 10
-880.9591
 20
232.4159
 30
0.0
 10
-826.4689000000001
 20
240.1176
 30
0.0
 10
-826.4689000000001
 20
240.1176
 30
0.0
 10
-826.4689000000001
 20
240.1176
 30
0.0
 10
-826.4689000000001
 20
240.1176
 30
0.0
 10
-850.6868000000001
 20
240.1176
 30
0.0
 10
-850.6868000000001
 20
240.1176
 30
0.0
  0
ENDSEC
  0
SECTION
  2
OBJECTS
  0
DICTIONARY
  5
C
330
0
100
AcDbDictionary
281
     1
  3
ACAD_GROUP
350
D
  3
ACAD_LAYOUT
350
1A
  3
ACAD_MLINESTYLE
350
17
  3
ACAD_PLOTSETTINGS
350
19
  3
ACAD_PLOTSTYLENAME
350
E
  0
DICTIONARY
  5
D
102
{ACAD_REACTORS
330
C
102
}
330
C
100
AcDbDictionary
281
     1
  0
DICTIONARY
  5
1A
102
{ACAD_REACTORS
330
C
102
}
330
C
100
AcDbDictionary
281
     1
  3
Layout1
350
1E
  3
Layout2
350
26
  3
Model
350
22
  0
DICTIONARY
  5
17
102
{ACAD_REACTORS
330
C
102
}
330
C
100
AcDbDictionary
281
     1
  3
Standard
350
18
  0
DICTIONARY
  5
19
102
{ACAD_REACTORS
330
C
102
}
330
C
100
AcDbDictionary
281
     1
  0
ACDBDICTIONARYWDFLT
  5
E
102
{ACAD_REACTORS
330
C
102
}
330
C
100
AcDbDictionary
281
     1
  3
Normal
350
F
100
AcDbDictionaryWithDefault
340
F
  0
LAYOUT
  5
1E
102
{ACAD_REACTORS
330
1A
102
}
330
1A
100
AcDbPlotSettings
  1

  2

  4

  6

 40
0.0
 41
0.0
 42
0.0
 43
0.0
 44
0.0
 45
0.0
 46
0.0
 47
0.0
 48
0.0
 49
0.0
140
0.0
141
0.0
142
1.0
143
1.0
 70
   688
 72
     0
 73
     0
 74
     5
  7

 75
    16
 76
     0
 77
     2
 78
   300
147
1.0
148
0.0
149
0.0
100
AcDbLayout
  1
Layout1
 70
     1
 71
     1
 10
0.0
 20
0.0
 11
12.0
 21
9.0
 12
0.0
 22
0.0
 32
0.0
 14
1.000000000000000E+20
 24
1.000000000000000E+20
 34
1.000000000000000E+20
 15
-1.000000000000000E+20
 25
-1.000000000000000E+20
 35
-1.000000000000000E+20
146
0.0
 13
0.0
 23
0.0
 33
0.0
 16
1.0
 26
0.0
 36
0.0
 17
0.0
 27
1.0
 37
0.0
 76
     0
330
1B
  0
LAYOUT
  5
26
102
{ACAD_REACTORS
330
1A
102
}
330
1A
100
AcDbPlotSettings
  1

  2

  4

  6

 40
0.0
 41
0.0
 42
0.0
 43
0.0
 44
0.0
 45
0.0
 46
0.0
 47
0.0
 48
0.0
 49
0.0
140
0.0
141
0.0
142
1.0
143
1.0
 70
   688
 72
     0
 73
     0
 74
     5
  7

 75
    16
 76
     0
 77
     2
 78
   300
147
1.0
148
0.0
149
0.0
100
AcDbLayout
  1
Layout2
 70
     1
 71
     2
 10
0.0
 20
0.0
 11
0.0
 21
0.0
 12
0.0
 22
0.0
 32
0.0
 14
0.0
 24
0.0
 34
0.0
 15
0.0
 25
0.0
 35
0.0
146
0.0
 13
0.0
 23
0.0
 33
0.0
 16
1.0
 26
0.0
 36
0.0
 17
0.0
 27
1.0
 37
0.0
 76
     0
330
23
  0
LAYOUT
  5
22
102
{ACAD_REACTORS
330
1A
102
}
330
1A
100
AcDbPlotSettings
  1

  2

  4

  6

 40
0.0
 41
0.0
 42
0.0
 43
0.0
 44
0.0
 45
0.0
 46
0.0
 47
0.0
 48
0.0
 49
0.0
140
0.0
141
0.0
142
1.0
143
1.0
 70
  1712
 72
     0
 73
     0
 74
     0
  7

 75
     0
 76
     0
 77
     2
 78
   300
147
1.0
148
0.0
149
0.0
100
AcDbLayout
  1
Model
 70
     1
 71
     0
 10
0.0
 20
0.0
 11
0.0
 21
0.0
 12
0.0
 22
0.0
 32
0.0
 14
-931.8402
 24
-211.2605
 34
0.0
 15
-580.736
 25
316.8157
 35
0.0
146
0.0
 13
0.0
 23
0.0
 33
0.0
 16
1.0
 26
0.0
 36
0.0
 17
0.0
 27
1.0
 37
0.0
 76
     0
330
1F
  0
MLINESTYLE
  5
18
102
{ACAD_REACTORS
330
17
102
}
330
17
100
AcDbMlineStyle
  2
Standard
 70
     0
  3

 62
   256
 51
90.0
 52
90.0
 71
     2
 49
0.5
 62
   256
  6
BYLAYER
 49
-0.5
 62
   256
  6
BYLAYER
  0
ACDBPLACEHOLDER
  5
F
102
{ACAD_REACTORS
330
E
102
}
330
E
  0
ENDSEC
  0
EOF
